Acordes y tablaturas para guitarra

Acordes y Tablaturas
Usuario: Password:

Buscar:
Acordes y Tablaturas >> Letra P >> Acordes de Panda >> Nuestra Afliccion
Tablatura de Nuestra Afliccion, Panda

Nuestra Afliccion

Panda






COMO TOCAR EL SOLO DE NUESTRA AFLICCION   
                                            aqui sin tocar cuerda
--------------------------------------------------------------
---------------------------------11-11-11-11-12-13--13-12-11--
-8-8-8-8-12-12-12-12-13-13-13-13------------------------------
--------------------------------------------------------------
--------------------------------------------------------------
-------------------------------------------------------------- 

igual tocar solo dos veces cada cuerda la de enmedio que es 9 sin tocar cuerda, solo como un clikeo
--------------------------------------------
--------------------------------------------
-10-9-8-----------------------------------------
--------10-9-8----------------------------------
---------------10-9-8/--/6-------------------------
--------------------------------------------

cheken los tiempos
--------------------------------------------------------
-15^-15-11----15^-15-11----15^-15-11---15^-15-11--------
-----------12-----------12-----------8----------8-------
--------------------------------------------------------
--------------------------------------------------------
--------------------------------------------------------  


-----------------------------------------------------
---------------------8-8-8-8-9-9-9-9-11-11-11-11-------
-8-8-8-8-10-10-10-10----------------------------------
-----------------------------------------------------
-----------------------------------------------------
----------------------------------------------------- 
igual tocar cada cuerda solo 2 veces y la de enmedio solo clikeo
-----------------------------------------------------
-9-8-----------------------------------------------------
-----10-9-8----------------------------------------------
------------10-9-8--10-------------------------------------
------------------------------------------------------
------------------------------------------------------     
cheken los tiempos
-13^-13-11---13^-13-11---13^-13-11---13^-13-11------------
----------11----------11----------8----------8------------
----------------------------------------------------------
----------------------------------------------------------
----------------------------------------------------------
----------------------------------------------------------  
                 igual 7 y 8 solo clikeo 
---------------------6-------------------------------
-8-8-8-8-6-6-6-6-7-8----8-7-6-----------------------
------------------------------8--8-8-7-8------------
-----------------------------------------------------
-----------------------------------------------------
------------------------------------------------------   

----15-16-18--16-15---------------------------
-16-----------------16-15---------------------
----------------------------------------------
---------------------------13~-----------------
----------------------------------------------
----------------------------------------------
cheken los tiempos
-10-11-10------10-11-10------10-11-10------10-11-10-------
----------11-8----------11-8----------11------------11----
-----------------------------------------8-------------8--
----------------------------------------------------------
----------------------------------------------------------
----------------------------------------------------------   
eso es todo la ultima parte no me lase pero cuando la saque la subo    
cualquier pregunta que no entendieron de la tablatura 
pregunten este es mi correo:[email protected]

Que te parecio? Calificalo con estrellas!!

Rating: 5.4/10 (60 votos)

Este fichero es trabajo propio de su transcriptor y representa su interpretación personal de la canción. El material contenido en esta página es para exclusivo uso privado, por lo que se prohibe su reproducción o retransmisión, así como su uso para fines comerciales.


Deja tus comentarios:

Letras de Panda
Letras de canciones | Musica Independiente