Enviado por: vanbanbang
Agrandar Letra
Reducir Letra
Imprimir


Otras Versiones de Morena De Mi Corazon:




Antonio Banderas, Morena De Mi Corazon

1)-------7-7--7-7--8--7--7----8--7-7-----|-.---
2)-----8-8-8--8-8--10-8--8-8--10-8-8-8-10!
3)---9---------------------9---------9-11|--------------
4)-9-------------------------------------|---------------------
5)---------------------------------------|--------------------
6)---------------------------------------|------------------


---------5-5--5-5---7--5-5-------7--5-5---------
-------7---7--7-7---8--7-7---7---8--7-7----7-8-------
-----8-----------------------8-------------8-9-----
----------------------------------------------------------
--------------------------------------------------------------
---------------------------------------------------

luego los acordes son:
mim
Soy un hombre muy honrado,
                   si7
Que me gusta lo mejor

LAs mujeres no me faltan,
                  mim
Ni al dinero, ni el amor

jineteando en mi caballo
                    si7
por la sierra yo me voy

las estrellas y la luna
                     mim
ellas me dicen donde voy

lAm          mim
ay, ay, ay, ay
si7          mim
ay, ay mi amor
lAm          mim
ay mi morena,
si7          mim
de mi corazon

SOLO_____

---------12----------------11---------------11------------------
-12---12-----12----12-0-12---12-10-12--0-12-----12-10-12-------
----12----------12----------------------------------------------
---------------------------------------------------------------
--------------------------------------------------------------
---------------------------------------------------------------

------12--------------12-------------------11-----------11----
-0- 12---12-10-12--0----12-10-12----0--12----12-10--12----10-12-
----------------------------------------------------------------
----------------------------------------------------------------
----------------------------------------------------------------
----------------------------------------------------------------

-------12---|------12-----12-------10---10---8---8---7---7--5--5
----12---------12-----12--------12-----12--------10------8-- -7-
-12----------12------12--------12-------------------------------
----------------------------------------------------------------
----------------------------------------------------------------
---------------------------------------------------------------

-3----3--2-2--0-------------------------------------------------
---5------3----3--1--0-------0-1-0-----------------------------
--------------------------2--------2-0-2-0----------------------
--------------------------------------------4-2-4-2----0--~~----
-----------------------------------------------------------3-2--
----------------------------------------------------------------

----------------------------------------------------------------
---0-0-0-4-5-7----0-0-0-5-7-8---0-0-0-4-5-7---------------------
---------------------------------------------------------------
----------------------------------------------------------------
--------------------------------------------------------------
----------------------------------------------------------------


---7--5--3--2--0---
-------------------
---8--5--4--2--0---
-------------------
-------------------
-------------------
Aviso: Este fichero es trabajo propio de su transcriptor y representa su interpretación personal de la canción. El material contenido en esta página es para exclusivo uso privado, por lo que se prohibe su reproducción o retransmisión, así como su uso para fines comerciales.
comentario del colaborador: es facil solo se nesesita un poco de velosidad para unas partes

Califica esta canción


Comentarios en Facebook