Enviado por:
bofo230355

Camila, Mientes

PARA ESTE INTRO SENESECITA CAPOTRASTE EN EL 2DO TRASTE 


1)--------4-----------------     
2)------2------2------------
3)---5-------5-----3--------
4)--------------------------
5)---6-------------4--------
6)--------------------------

SE REPITE EN TODA LA CANCION SOLO DESPUES DE REPETIR LO MISMO TRES VESES SIGE:

1)-------------------------
2)-------------------------
3)---3\5---5\7-6-----------
4)---4\6-6-6\8-------------
5)-------------------------
6)-------------------------
Aviso: Este fichero es trabajo propio de su transcriptor y representa su interpretación personal de la canción. El material contenido en esta página es para exclusivo uso privado, por lo que se prohibe su reproducción o retransmisión, así como su uso para fines comerciales.
comentario del colaborador: FUENTE YOU TUBE

Califica esta canción


Comentarios en Facebook