Acordes y tablaturas para guitarra

Acordes y Tablaturas
Usuario: Password:

Buscar:
Acordes y Tablaturas >> Letra A >> Acordes de Avenged Sevenfold >> Buried Alive
Tablatura de Buried Alive, Avenged Sevenfold

Buried Alive

Avenged Sevenfold






(intro)

E|-----8----10p8----8----7---5----------------------------|
B|-/10---10------10----8---8---8/10~--3-5-3-6p5-3-5-------|
G|--------------------------------------------------------|
D|--------------------------------------------------------|
A|---7-----------------7--------------5-------------5-3-2-|
E|--------------------------------------------------------|

E|---0---------------|
B|-1---1-3\1-0-1-0---|
G|-----------------0-|
D|-------------------|
A|-0-----------------|
E|-------------------|

E|-----8----10p8----8----7---5------------------------3-5-4h5p4p3h4-5-|
B|-/10---10------10----8---8---8/10~--3-5-3-6p5-3-5-6-----------------|
G|--------------------------------------------------------------------|
D|--------------------------------------------------------------------|
A|---7-----------------7--------------5-------------------------------|
E|--------------------------------------------------------------------|

E|-----------------------------------------------------------------|
B|-/10--8-10-\3-1-3-1-----/10-8-10-\3-1h3-1-/10--8-10-/3-1-3-1-----|
G|--------------------2-0--------------------------------------2-0-|
D|-----------------------------------------------------------------|
A|-----------------------------------------------------------------|
E|-----------------------------------------------------------------|

E|----------------|
B|-7-8-7-5-5--5---|
G|----------5--5--| (2x)
D|-----------7--7-|
A|----------------|
E|----------------|

E|---------------24---------------24----|
B|--------5-5--------------5-5-------22-|
G|-/5--4------2/----/5--4------2/-------|
D|--------------------------------------|
A|--------------------------------------|
E|--------------------------------------|

E|----------10-----------------------------------10--------------------------------------|
B|-13--1313---13-------------------------13-1313---13------------------------------------|
G|--------------121212--14--1414---13~------------------121212--14-1416-17-16161617-19~--|
D|------------------------------14-------------------------------------------------------|
A|---------------------------------------------------------------------------------------|
E|---------------------------------------------------------------------------------------|

E|--------------------------/17-15-------------------|
B|-----13-12-13----13-12-13--------18----------------|
G|-1414---------12--------------------17-15-17p15p14-|
D|---------------------------------------------------|
A|---------------------------------------------------|
E|---------------------------------------------------|

E|--------------------------/13-15-13---------------------------|
B|-----13-12-13----13-12-13-----------15b17r15--171513----------|
G|-1414---------12------------------------------------16141214~-|
D|--------------------------------------------------------------|
A|--------------------------------------------------------------|
E|--------------------------------------------------------------|

(verso)

E|-----0-------0--------1------0-------|
B|---1--1---1-1--1----1--1----3--------|
G|----2--2---0----0--0-0--0--1---------| (4x)
D|-----------------23-------2----20----|
A|-0------23-----------------------320-|
E|-------------------------------------|

E|-/13-----12-----10----------|
B|--------------------8101213-|
G|----------------------------|
D|----------------------------|
A|----------------------------|
E|----------------------------|

E|-/13-----12-----15-----16---|
B|----------------------------|
G|----------------------------|
D|----------------------------|
A|----------------------------|
E|----------------------------|

(coro)

E|----------------------------------------------------|
B|----------------------------------------------------|
G|-2--2-----------------2--2-----------------9-7-10-9-|
D|-2--2-2-5--5-5-6667-9-2--2-2-5--5-5-6667-9-9-7-10-9-|
A|-0--0-2-3--3-3-2223-5-0--0-2-3--3-3-2223-5-7-5--8-7-|
E|------2-3--3-3-2223-5------2-3--3-3-2223-5----------|

E|------------------------------------------------------------|
B|------------------------------------------------------------|
G|-2--2-----------------2--2-----------------9---9---9-7-10-9-|
D|-2--2-2-5--5-5-6667-9-2--2-2-5--5-5-6667-9-9---9---9-7-10-9-|
A|-0--0-2-3--3-3-2223-5-0--0-2-3--3-3-2223-5-7---7---7-5--8-7-|
E|------2-3--3-3-2223-5------2-3--3-3-2223-5------------------|

(ponte)

E|----------10----------------------------10--------------------------------|
B|-13--1313---13------------------13-1313---13------------------------------|
G|--------------12--14-1414--13~--------------12--14-1416-17-1616161719-17~-|
D|-------------------------14-----------------------------------------------|
A|--------------------------------------------------------------------------|
E|--------------------------------------------------------------------------|

(verso)

E|-----0-------0--------1------0-------|
B|---1--1---1-1--1----1--1----3--------|
G|----2--2---0----0--0-0--0--1---------| (4x)
D|-----------------23-------2----20----|
A|-0------23-----------------------320-|
E|-------------------------------------|

E|-/13-----12-----10----------|
B|--------------------8101213-|
G|----------------------------|
D|----------------------------|
A|----------------------------|
E|----------------------------|

E|-/13-----12-----15-----16---|
B|----------------------------|
G|----------------------------|
D|----------------------------|
A|----------------------------|
E|----------------------------|

(coro)

E|----------------------------------------------------|
B|----------------------------------------------------|
G|-2--2-----------------2--2-----------------9-7-10-9-|
D|-2--2-2-5--5-5-6667-9-2--2-2-5--5-5-6667-9-9-7-10-9-|
A|-0--0-2-3--3-3-2223-5-0--0-2-3--3-3-2223-5-7-5--8-7-|
E|------2-3--3-3-2223-5------2-3--3-3-2223-5----------|

                                                           (2x)
E|------------------------------------------------------------|
B|------------------------------------------------------------|
G|-2--2-----------------2--2-----------------9---9---9-7-10-9-|
D|-2--2-2-5--5-5-6667-9-2--2-2-5--5-5-6667-9-9---9---9-7-10-9-|
A|-0--0-2-3--3-3-2223-5-0--0-2-3--3-3-2223-5-7---7---7-5--8-7-|
E|------2-3--3-3-2223-5------2-3--3-3-2223-5------------------|

(solo)
E|--------------------------------------------|
B|-/13-13-15-17--------15---------------------|
G|-------------12-1212---1414-14--1616161719~-|
D|--------------------------------------------| (2x)
A|--------------------------------------------|
E|--------------------------------------------|

E|-12p8----12p8----12p8----12p8-----12p8---------|
B|------10------10------10------10-------10------|
G|------------------------------------------9----|
D|-----------------------------------------------|
A|-----------------------------------------------|
E|-----------------------------------------------|

E|-12p8----12p8----12p8----12p8----12p8-------|
B|------8--------8-------8------8-------8-----|
G|----------------------------------------9---|
D|--------------------------------------------|
A|--------------------------------------------|
E|--------------------------------------------|

E|-13p10----13p10----13p10----13p10-----13p10----------|
B|------10--------10-------10-------10--------10-------|
G|-----------------------------------------------10----|
D|-----------------------------------------------------|
A|-----------------------------------------------------|
E|-----------------------------------------------------|

E|-10p7----10p7----10p7----10p7------10p17-------------|
B|------8-------8-------8-------8----------8-----------|
G|-------------------------------------------7---------|
D|-----------------------------------------------------|
A|-----------------------------------------------------|
E|-----------------------------------------------------|

E|-12p8----12p8----12p8----12p8-----12p8---------|
B|------10------10------10------10-------10------|
G|------------------------------------------9----|
D|-----------------------------------------------|
A|-----------------------------------------------|
E|-----------------------------------------------|

E|-12p8----12p8----12p8----12p8----12p8-------|
B|------8--------8-------8------8-------8-----|
G|----------------------------------------9---|
D|--------------------------------------------|
A|--------------------------------------------|
E|--------------------------------------------|

E|-13p10----13p10----13p10----13p10-----13p10----------|
B|------10--------10-------10-------10--------10-------|
G|-----------------------------------------------10----|
D|-----------------------------------------------------|
A|-----------------------------------------------------|
E|-----------------------------------------------------|

E|-16171615161716151920191819201918------1720~-|
B|-------------------------------------17------|
G|-----------------------------------17--------|
D|---------------------------------19----------|
A|---------------------------------------------|
E|---------------------------------------------|
tremolo pick
E|-------15-17-----12-17-16--------15-17--19-20-19-11-|
B|-10-13--------13-----------10-13--------------------|
G|----------------------------------------------------|
D|----------------------------------------------------|
A|----------------------------------------------------|
E|----------------------------------------------------|

E|-17p12----------20p1717p12----------20p1717p13-----------|
B|------17p13---------------17p13---------------17p13------|
G|-----------14h17---------------14h17---------------14h17-|
D|---------------------------------------------------------|
A|---------------------------------------------------------|
E|---------------------------------------------------------|
tremolo pick
E|-------15-17-12-13-11-13-7-8-4-5~-|
B|-10-13----------------------------|
G|----------------------------------|
D|----------------------------------|
A|----------------------------------|
E|----------------------------------|

E|-------------------------------------------------15-17~-|
B|-------------------13-15-17~------------13-15-17--------|
G|-------------12-14-------------12-13-14-----------------|
D|-------13-14----------------14--------------------------|
A|-12-15--------------------------------------------------|
E|--------------------------------------------------------|

E|-------------13-15-17-19-19b20r19-17------101310-10-----10------|
B|-------15-17-------------------------20b22---------13b15--13b15-|
G|-14-17----------------------------------------------------------|
D|----------------------------------------------------------------|
A|----------------------------------------------------------------|
E|----------------------------------------------------------------|

E|---------12----------------121713--------------16--------------17~-|
B|-13151617--13------------13------15----------15--15----------15----|
G|-------------14--------14----------14------14------14------14------|
D|---------------14----14--------------15--15----------15--15--------|
A|-----------------1215------------------17--------------17----------|
E|-------------------------------------------------------------------|

(verso)

E|-----------------|-------------|
B|-----------------|-------------|
G|-----------------|-------------|
D|-2-----2-----2---|-X7-55544433-|
A|-2-2-2-2-2-2-2-2-|----55544433-|
E|-2-2-2-2-2-2-2-2-|----55544433-|

E|-----------------|-------------|
B|-----------------|-------------|
G|-----------------|-------------| (2x)
D|-2-----2-----2---|-X3-55544433-|
A|-2-2-2-2-2-2-2-2-|----55544433-|
E|-2-2-2-2-2-2-2-2-|----55544433-|    \
				      (2x)
E|-----------------------------|      /
B|-----------------------------|
G|-----------------------------|
D|------------2-------------2--|
A|---3-2--2-3---0--2-3--2-3----|
E|-2---------------------------|

(solo)

E|----------------------------------------------171512-------------|
B|-15b17-15b17r15p12----------------------151617------171512-------|
G|--------------------14--12~-------141516------------------161412-|
D|------------------12--12---14~1417-------------------------------|
A|-----------------------------------------------------------------|
E|-----------------------------------------------------------------|

E|-171512------181512-------------12-------19-18-------17-15~-|
B|-------171512------17151215b17~-------12----------12--------|
G|-----------------------------------12----------12-----------|
D|------------------------------------------------------------|
A|------------------------------------------------------------|
E|------------------------------------------------------------|

E|--------------------12-------19-18-------17-15-17b1917b19-|
B|--------------------------12----------12------------------|
G|-14121412----151412----12----------12---------------------|
D|---------1412---------------------------------------------|
A|----------------------------------------------------------|
E|----------------------------------------------------------|

(final)

E|----------------------------|
B|----------------------------|
G|----------------------------|
D|-2-----5-4--3-2-------------| (4x)
A|-2-2-2-5-4--3-2-222-222-222-|
E|-2-2-2-5-4--3-2-222-222-222-|

E|-----------------------------|
B|-----------------------------|
G|-----------------------------|
D|-2-----5-4--3-2--------------| (4x)
A|-2-2-2-5-4--3-2-222222222222-|
E|-2-2-2-5-4--3-2-222222222222-|

E|-------------------------------------------|
B|-------------------------------------------|
G|-------------------------------------------|
D|-2-----5-4--3-2-------------2-----5-4--3-2-| (2x)
A|-2-2-2-5-4--3-2-222-222-222-2-2-2-5-4--3-2-|
E|-2-2-2-5-4--3-2-222-222-222-2-2-2-5-4--3-2-|

Que te parecio? Calificalo con estrellas!!

Rating: 8.2/10 (164 votos)

Este fichero es trabajo propio de su transcriptor y representa su interpretación personal de la canción. El material contenido en esta página es para exclusivo uso privado, por lo que se prohibe su reproducción o retransmisión, así como su uso para fines comerciales.


Comentario de elrolo
ahi les dejo ese superr tema de avenged sevenfold
Deja tus comentarios:
Letras de canciones | Musica Independiente