Acordes y tablaturas para guitarra

Acordes y Tablaturas
Usuario: Password:

Buscar:
Acordes y Tablaturas >> Letra E >> Acordes de EAGLES >> Hotel California (solo)
Tablatura de Hotel California (solo), EAGLES

Hotel California (solo)

EAGLES






Hotel California (solo)
El solo se divide en 6 partes principales, lo recomendable es aprenderse parte por parte la tablatura. 
Cuando se aprendan la primera parte, pasan a la segunda, cuando se aprendan la segunda, pasan a la tercera
y así sucesivamente hasta que se logren aprender todo el solo...

Parte 1
E|--------------------------------|--------------------------|--------------------|--------------------------10------------------|
B|-----10--12--12b15--10--12------|------7-------------------|------7-------------|------7-------------10b12----pb12r10-7-10-8b9-|
G|-s11------------------------s9v-|-7--9---7b----4p7h4-------|-7--9---7b----------|-7--9---7b------------------------------------|
D|--------------------------------|-----------8v--------8b9s-|-x----------9-8-9v--|-x----------9-7-9-7---------------------------|
A|--------------------------------|--------------------------|-x------------------|-x--------------------------------------------| 
E|--------------------------------|--------------------------|-x------------------|-x--------------------------------------------|

E|-7---10b12--10-pb12--7-------10-------------------------10--------------|
B|---7-------------------10b12----pb12r10--8v--x--x-----------------------|
G|---------------------------------------------------9b11----pb11r9p7-7h6-|
D|------------------------------------------------------------------------|
A|------------------------------------------------------------------------|
E|------------------------------------------------------------------------|

E|----------------------------------------------------------------7-|-----------------|
B|--------------7b--7b=r7--------7b--7b--7b=7----------7-10------7--|-----------------|
G|-7v--x--x-7p9------------9-7-9--------------9-7-9b11------9b11----|-9b11r9h7--9b11v-|
D|------------------------------------------------------------------|-----------------|
A|------------------------------------------------------------------|-----------------|
E|------------------------------------------------------------------|-----------------|

Parte 2
E|------------------7--------7-7------------------------------------|-----------------------------7v-------------10-----------------------|
B|------7-10-------7---------7-7-------7-7--------------------------|----------------------10b12------10-7-10s12----x--12--11--10--9vs17--|
G|-9b11------9b11------9b11------9b11-------9b11r9h7--9-7--9b11vs21-|-11b13---9-11-7v----7------------------------------------------------|
D|------------------------------------------------------------------|-x----------------9--------------------------------------------------|
A|------------------------------------------------------------------|-x-------------------------------------------------------------------|
E|------------------------------------------------------------------|-x-------------------------------------------------------------------|

E|--------------12---------17----------------------15-16--17s19---------------|
B|-------12-15b----15-17b19==pb19b17-15-17-15-17b19-------------17b19-15v--17-|
G|-14b16----------------------------------------------------------------------|
D|----------------------------------------------------------------------------|
A|----------------------------------------------------------------------------|
E|----------------------------------------------------------------------------|

Parte 3
E|----------------------------10---------10------------------|
B|--pb15r14h12--14b15--13b15------13b15-----------------11v--|
G|-------------------------------------------11s7------------|
D|------------------------------------------------9h8--------|
A|-----------------------------------------------------------|
E|-----------------------------------------------------------|

Parte 4.a
E|----------------------------------------------------------------------------|--------------------------|
B|--17b19--17b--17b--17b--17b--17b--17b--17b--17b--17b--17h15-----17--15b-----|--------------------------|
G|--x---------------------------------------------------------16----------16v-|-14--------------------14v|
D|--x-------------------------------------------------------------------------|-----16s14--12--14s16-----|
A|--x-------------------------------------------------------------------------|--------------------------|
E|----------------------------------------------------------------------------|--------------------------|

E|--------7-----------------|-----------------------------------------------------|--------------------------------|
B|----------7--10---7-------|------------------------------7-----10h7-------------|----------7--8--7v--11--12--14--|
G|-7-9b10---------9---7--9--|-----7---------------------------7--------9b10r9--7v-|-7--9--9------------------------|
D|--------------------------|--9-------7---------------7v-------------------------|--------------------------------|
A|--------------------------|-------9-----9s7--5--7s9-----------------------------|--------------------------------|
E|--------------------------|-----------------------------------------------------|--------------------------------|

Parte 5
E|---------10------9-----7-------------------------------------7-----|--12h10-------------------------------------------------------|
B|--10b12------10-----8-----7--10-----8---------------------------7--|------------------------------------10--12--11v--14--15--17---|
G|---------------------------------9--------7--------------7v--------|---------12b14r12--11v--11--12--12----------------------------|
D|---------------------------------------9-----7s5--4-5s7------------|--------------------------------------------------------------|
A|-------------------------------------------------------------------|--------------------------------------------------------------|
E|-------------------------------------------------------------------|--------------------------------------------------------------|

Parte 6
E|-14h12--14h12--14h12--14h12--14h12----12h9----12h9---12h9--12s18v-|-12h9---12h9---12h9---12h9----12h9----10h7---10h7---10h7-10s16v-|
B|------12-----12-----12-----12------12------11-----11--------------|-----10-----10-----10------10------10------9------9-------------|
G|------------------------------------------------------------------|----------------------------------------------------------------|
D|------------------------------------------------------------------|----------------------------------------------------------------|
A|------------------------------------------------------------------|----------------------------------------------------------------|
E|------------------------------------------------------------------|----------------------------------------------------------------|

E|-10h7---10h7---10h7---10h7---10h7---10h5---10h5---10h5--10s14v-|-7h3---7h3---7h3---7h3--7h3---9h6---9h6---9h6-9s14v-|   |-5-5-5-5--|
B|------8------8------8------8------8------7------7--------------|-----5-----5-----5-----5----5-----7-----7-----------|   |-5-5-5-5--|
G|---------------------------------------------------------------|----------------------------------------------------|   |-5-5-5-5--|
D|---------------------------------------------------------------|----------------------------------------------------|   |-7-7-7-7--|
A|---------------------------------------------------------------|----------------------------------------------------|   |-7-7-7-7--|
E|---------------------------------------------------------------|----------------------------------------------------|x2 |-5-5-5-5--|

Dudas, quejas y comentarios: [email protected]

Que te parecio? Calificalo con estrellas!!

Rating: 8.0/10 (139 votos)

Este fichero es trabajo propio de su transcriptor y representa su interpretación personal de la canción. El material contenido en esta página es para exclusivo uso privado, por lo que se prohibe su reproducción o retransmisión, así como su uso para fines comerciales.


Deja tus comentarios:
Letras de canciones | Musica Independiente