Enviado por:
fabrijd

Camila, Besame

Hola chikos, aqui les dejo los verdaderos acordes y tablaturas de esta cancion que es super chida, espero les guste, EL CAPO LO COLOCAN EN EL SEGUNDO TRASTE!!!

INTRO
   C9                      
e|-3-----2-----0-----------3-----2-----0----------------
B|---3-----3-----3---3---3---3-----3-----3---3---3------
G|-----0-----0-----0---0-------0-----0-----0---0--------
D|-------------------------4----------------------------
A|-3----------------------------------------------------
E|------------------------------------------------------
   C9
e|-3-----2-----0-----------------------0----------------
B|---3-----3-----3---3---0------------------------------
G|-----0-----0-----0---0---------0----------------------
D|-----------------------------4---4-0-2----------------
A|-3-------------------------2--------------------------
E|-------------------------0----------------------------

Primera guitarra 
e|---------5h7-10h12------------------------------------
B|-----7h8-----------10h12-8h10-8-7h8-------------------
G|-7h9--------------------------------7h9---------------
D|------------------------------------------------------
A|------------------------------------------------------
E|------------------------------------------------------

VERSO
   C9                      
e|-3-----2-----0-----------3-----2-----0----------------
B|---3-----3-----3---3---3---3-----3-----3---3---3------
G|-----0-----0-----0---0-------0-----0-----0---0--------
D|-------------------------4----------------------------
A|-3----------------------------------------------------
E|------------------------------------------------------
  Bésame                  y a es tiempo

   C9
e|-3-----2-----0-----------------------0----------------
B|---3-----3-----3---3---0------------------------------
G|-----0-----0-----0---0---------0----------------------
D|-----------------------------4---4-0-2----------------
A|-3-------------------------2--------------------------
E|-------------------------0----------------------------
  Sin piedad             Y en silencio

   C9                      
e|-3-----2-----0-----------3-----2-----0----------------
B|---3-----3-----3---3---3---3-----3-----3---3---3------
G|-----0-----0-----0---0-------0-----0-----0---0--------
D|-------------------------4----------------------------
A|-3----------------------------------------------------
E|------------------------------------------------------
 Bésame                   Frena el tiempo

   C9
e|-3-----2-----0----------------------------------------
B|---3-----3-----3---3---0------------------------------
G|-----0-----0-----0---0--------------------------------
D|-------------------------2-2-2-2-2-2-2-2-2-2----------
A|-3-----------------------2-2-2-2-2-2-2-2-2-2----------
E|-------------------------0-0-0-0-0-0-0-0-0-0----------
  Has crecer              Lo que siento

     Am
Besame
 Bm                            Em   D5/D/D5
como si el mundo se acabara despues
    Am
Besame
  Bm                            Em  D5/D/D5
Y beso a beso pon el cielo alreves 
Am
Besame
B
Sin razon
        Em        D5  Am
Porque quiere el corazon

   C9
e|-3-----2-----0-----------------------------------------
B|---3-----3-----3---3---3-------------------------------
G|-----0-----0-----0---0---------------------------------
D|-------------------------------------------------------
A|-3-----------------------------------------------------
E|-------------------------------------------------------
  Besame

C9   Em    C9  
Uhuuuuuu, uuuuuuuuuuuuuuuuu noooooooooo........aaaaa
e|-------------0----------------
B|------------------------------
G|-------0----------------------
D|-----4---4-0-2----------------
A|---2--------------------------
E|-0----------------------------

Sienteme 
en el viento
mientras yo
muero lento

Besame 
sin motivos
y estaré 
siempre contigo.....ohooooooo

Besame
como si el mundo se acabara despues

Besame
y beso a beso pon el cielo alreves

Besame......Sin razon
porque quiere el corazon...

Besame......

 C9   Em    C9  
 Uhuuuuuu, uuuuuuuuuuuuuuuuu noooooooooo........aaaaa
 Em
Uhuuuuuuuuuu, besame....

Besame 
como si el mundo se acabara despues

Besame 
y beso a beso pon el cielo alreves

Besame......Sin razon
porque quiere el corazon...

   C9                      
e|-3-----2-----0---------------------------------------
B|---3-----3-----3---3---3-----------------------------
G|-----0-----0-----0---0-------------------------------
D|-----------------------------------------------------
A|-3---------------------------------------------------
E|-----------------------------------------------------
  Besame


   C9                      
e|-3-----2-----0---------------------------------------
B|---3-----3-----3---3---3-----------------------------
G|-----0-----0-----0---0-------------------------------
D|-----------------------------------------------------
A|-3---------------------------------------------------
E|-----------------------------------------------------
  Besame asi sin compasion

                     
e|-3-----2-----0---------------------------------------
B|---3-----3-----3---3---3-----------------------------
G|-----0-----0-----0---0-------------------------------
D|-2---------------------------------------------------
A|-----------------------------------------------------
E|-----------------------------------------------------
  Quedate en mi sin condicion........
   
   C9                D
e|-3-------3---------2-----2---------------------------
B|---3---3---3-------3-3-----3-------------------------
G|-----0-------0---------0-----0-----------------------
D|-------------------0---------------------------------
A|-3---------------------------------------------------
E|-----------------------------------------------------
  Dame tan solo un motivo

   C9                      
e|-3-----2-----0-----------3-----2-----0----------------
B|---3-----3-----3---3---3---3-----3-----3---3---3------
G|-----0-----0-----0---0-------0-----0-----0---0--------
D|-------------------------4----------------------------
A|-3----------------------------------------------------
E|------------------------------------------------------
  Y me quedo yo,       y me quedo yo

   C9
e|-3-----2-----0-----------------------0----------------
B|---3-----3-----3---3---0------------------------------
G|-----0-----0-----0---0---------0----------------------
D|-----------------------------4---4-0-2----------------
A|-3-------------------------2--------------------------
E|-------------------------0----------------------------
 Y me quedo yo       y me quedo yo


Trabajo realizado por Fabricio Tigse(Fabo Fabito Fabo).
Buscame en el Facebook!!
Comentarios y sugerencias: [email protected]
Aviso: Este fichero es trabajo propio de su transcriptor y representa su interpretación personal de la canción. El material contenido en esta página es para exclusivo uso privado, por lo que se prohibe su reproducción o retransmisión, así como su uso para fines comerciales.

Califica esta canción


Comentarios en Facebook