Enviado por: angelrock
Agrandar Letra
Reducir Letra
Imprimir

Acordes:
½ tono
| +0 |
½ tono
||
Volver


Cornelio Reyna, Te Vas Angel Mio

Intro:
     A                       E7
e:---5-9-7-5----10-10-10-9-5-7---
B:-5---------5-------------------
G:-------------------------------
                                                A 
E:-7-7-7-8-10-12--16-14-12--------14-14-14-12-8-10--
B:-------------------------12--12-------------------
G:--------------------------------------------------

A
Te vas, ángel mío
             E7
Ya vas a partir

Dejando mi alma herida
                   A 
Y un corazón a sufrir.

A
Te vas y me dejas
              E7
Un inmenso dolor

Recuerdo inolvidable
                     A 
Me a quedado de tu amor.

Interludio:
 A                       E7
e:---5-9-7-5----10-10-10-9-5-7---
B:-5---------5-------------------
G:-------------------------------
                                                A 
E:-7-7-7-8-10-12--16-14-12--------14-14-14-12-8-10--
B:-------------------------12--12-------------------
G:--------------------------------------------------
A
Pero cuando vuelvas
                 E7
No me hallaras a mí

Iras a mi tumba
                  A 
Y ahí rezaras por mi.

A
Veras unas letras
          E7
Escritas ahí

Con el nombre y la fecha
                     A 
Y el día en que fallecí.

Interludio:
 A                       E7
e:---5-9-7-5----10-10-10-9-5-7---
B:-5---------5-------------------
G:-------------------------------
                                                A 
E:-7-7-7-8-10-12--16-14-12--------14-14-14-12-8-10--
B:-------------------------12--12-------------------
G:--------------------------------------------------

A                       E7
e:---5-9-7-5----10-10-10-9-5-7---
B:-5---------5-------------------
G:-------------------------------
                                                A 
E:-7-7-7-8-10-12--16-14-12--------14-14-14-12-8-10--
B:-------------------------12--12-------------------
G:--------------------------------------------------

A
Veras unas letras
          E7
Escritas ahí

Con el nombre y la fecha
                     A 
Y el día en que fallecí.
Aviso: Este fichero es trabajo propio de su transcriptor y representa su interpretación personal de la canción. El material contenido en esta página es para exclusivo uso privado, por lo que se prohibe su reproducción o retransmisión, así como su uso para fines comerciales.

Califica esta canción


Comentarios en Facebook