Enviado por:
gelox








Mana, Labios Compartidos

Primera guitarra: guitarra acústica

intro : (el rasgueo lo hace con variantes en el acorde)

(rasgueo:abajo,abajo,arriba,abajo,arriba,arriba,abajo,arriba,abajo,abajo,arriba,abajo,arriba,arriba,abajo,arriba)


(Este rasgueo lo mantiene hasta el pre-coro)
     Cm    D#           A#        Fm
E||-3-3--6-6-6-6-6-6---6-6--8--8--8--8--8--8-------
B||-4-4--6-6-6-6-6-6---6-6--8--8--8--8--8--8-------
G||-5-5--8-8-8-8-8-8---7-8--10-10-10-10-10-10------
D||-5-5--8-8-8-8-8-8---8-8--10-10-10-10-10-10------
A||-3-3--6-6-6-6-6-6---8-8--8--8--8--8--8--8-------
E||-3-3--6-6-6-6-6-6---6-6--8--8--8--8--8--8-------

Estrofa:
C      D#                                                                                  
Amor mio
A#          Fm                      Cm      D#
si estoy debajo del va y ven de tus piernas
A#          Fm                     Cm      D#
si estoy hundido en un va y ven de caderas
A#          Fm            Cm   D#   A#   Fm
 esto es el cielo, es mi cielo

       Cm   D#
Amor fugado
   A#                    Fm                     Cm   D#
me tomas, me dejas, me exprimes y me tiras a un lado
   A#                     Fm                   Cm  D#
te vas a otros cielos y regresas como los colibrís
   A#             Fm            Cm  D#  A#  Fm
me tienes como un perro a tus pies 

pre-coro:
  Gm                     G#
Otra vez mi boca insensata
           D#        A#
vuelve a caer en tu piel
 Gm                         G#
vuelve a abrir tu boca y provoca
           Fm                             A#
vuelvo a caer, de tus pechos a tu par de pies

coro:
              G#                  A#
Labios compartidos, labios divididos [mi amor]
D#                        Cm
yo no puedo compartir tus labios
                 G#                    A#
ni comparto el engaño, ni comparto mis dias y el dolor
D#                        Cm
ya no puedo compartir tus labios
    G#        A#            Cm   D#   A#   Fm
oh amor!, oh amor!, compartido...



       Cm   D#
Amor mutante
 A#                         Fm                Cm    D#  A#
amigos con derecho, y sin derecho de tenerte siempre
          Fm             Cm         D#
y siempre tengo que esperar paciente
     A#          Fm        Cm  D#  A#  Fm
el pedazo que me toca de ti


       Cm         D#  A#
Relámpagos y alcohol
          Fm           Cm     D#  A#
las voces solas lloran en el sol, eh!
            Fm         Cm
mi boca en llamas torturada
    D#           A#     Fm      Cm   D#   A#   Fm
te desnudas angelada, luego te vas



Gm                     G#
Otra vez mi boca insensata
           D#                 A#
vuelve a caer en tu piel de miel
 Gm                      G#
vuelve a abrir tu boca, duele!
           Fm                             A#
vuelvo a caer, de tus pechos a tu par de pies


           G#                  A#
Labios compartidos, labios divididos [mi amor]
D#                        Cm
yo no puedo compartir tus labios
                 G#                    A#
ni comparto el engaño, ni comparto mis dias y el dolor
D#                        Cm
ya no puedo compartir tus labios
                G#                         A#
que me parta un rayo, que me entierre el olvido, mi amor
        D#                Gm                   G#
pero no puedo mas, compartir tus labios, compartir tus besos
A#           Cm    D#   A#   Fm
Labios compartidos.

Solo:
Cm - D# - A# - Fm


   Cm      D#      A#          Fm
Te amo con toda mi fé, sin medida
   Cm            D#          A#
te amo, aunque estés compartida
    Fm               Cm     D#  A#  Fm
tus labios tienen el control
   Cm      D#      A#          Fm
Te amo con toda mi fé, sin medida
   Cm            D#          A#
te amo, aunque estés compartida
    Fm         Cm     >D#  >A#  >Fm.
y subes tu, el control 

Segunda guitarra eléctrica 

Intro 

e.---3--3---
B.----4-----
G.-------3?- (junto con la guitarra acústica
D.----------
A.----------
E.---------- 

Estrofa: (este riff se hace al final de cada verso de la estrofa) se hace hasta al precoro) en la primera estrofa 

e.--3--3----
B.---4------
G.------3--- 
D.----------
A.----------
E.----------

e.---3-3-----1-----------------------------
B.----4--------4-4-4-3-3-3-4-4-4-1-1-1-3---
G.------3-3/1------------------------------
D.-----------------------------------------
A.-----------------------------------------
E.-----------------------------------------

y en la segunda estrofa: (este riff se hace al final de cada verso de la estrofa) se hace hasta al precoro)

e.--3--3----
B.---4------
G.------3-5- 
D.----------
A.----------
E.----------

e.--3--3----
B.---4------
G.------3-1- 
D.----------
A.----------
E.----------

e.--3--3----
B.---4------
G.------3-5- 
D.----------
A.----------
E.----------

e.--3-3-----------------------------------
B.---4---------3--------------------------
G.-----3-5---3-5-5------------------------
D.----------5-----------------------------
A.----------------------------------------
E.----------------------------------------

Pre-coro:(ustedes sabrán como acomodar estos riffs deben escuchar la canción)

e.----3------4----3-------------------
B.---3------4----4--------3-----------
G.-----3------5----3----3------------- x2
D.---------------------3-3------------
A.------------------------------------
E.------------------------------------

Coro:(ustedes sabrán como acomodar estos riffs deben escuchar la canción)

e.------------------------------------
B.--4-----6-----8----4--4-6-----------
G.---5-----7-----8----5--------------- 
D.----6-----8-----8----5--------------
A.------------------------------------
E.------------------------------------

e.------------------------------------
B.--4-----6-----8----4--4-6-----------
G.---5-----7-----8----5---------------
D.----6-----8-----8----5--------------
A.------------------------------------
E.------------------------------------

e.-------------
B.--4-----6----
G.---5-----7---
D.----6-----8--
A.-------------
E.-------------

Intro: (aquí solamente la guitarra acústica toca el intro)

Estrofa: 
e.--3--3----
B.---4------
G.------3-5- 
D.----------
A.----------
E.----------

e.--3--3----
B.---4------
G.------3-1- 
D.----------
A.----------
E.----------

e.--3--3----
B.---4------
G.------3-5- 
D.----------
A.----------
E.----------

e.--3--3--6-
B.---4------
G.------3--- 
D.----------
A.----------
E.----------

?Relámpagos??:ustedes sabrán colocar este riff)

e.--6-6-6-6-6-6-6-6-6-6-6-6-6-6-6-6-6-6-6-6-6-6-
B.--9-9-9-8-8-8-6-6-6-9-9-9-9-8-8-8-6-6-6-6-6-6-
G.--8-8-8-8-8-8-8-8-8-8-8-8-8-8-9-9-7-7-7-8-8-8-
D.----------------------------------------------
A.----------------------------------------------
E.----------------------------------------------

e.-6-6-6-----------------
B.-6-6-6-----------------
G.-7-7-7--5-5-5-5-5-5-5-- 
D.--------6-6-6-6-8-6-6--
A.-----------------------
E.-----------------------

e.--6-6-6-6-6-6-6-6-6-6-6-6-6-6-6-6-6-6-6-6-6-6-
B.--9-9-9-8-8-8-6-6-6-9-9-9-9-8-8-8-6-6-6-6-6-6-
G.--8-8-8-8-8-8-8-8-8-8-8-8-8-8-9-9-7-7-7-8-8-8-
D.----------------------------------------------
A.----------------------------------------------
E.----------------------------------------------

e.-6-6-6-----------------
B.-6-6-6-----------------
G.-7-7-7--5-5-5-5-5-5-5-- 
D.--------6-6-6-6-8-6-6--
A.-----------------------
E.-----------------------

e.--6-6-6-6-6-6-6-6-6-6-6-6-6-6-6-6-6-6-6-6-6-6-
B.--9-9-9-8-8-8-6-6-6-9-9-9-9-8-8-8-6-6-6-6-6-6-
G.--8-8-8-8-8-8-8-8-8-8-8-8-8-8-9-9-7-7-7-8-8-8-
D.----------------------------------------------
A.----------------------------------------------
E.----------------------------------------------

e.-6-6-6-----------------
B.-6-6-6-----------------
G.-7-7-7--5-5-5-5-5-5-5-- 
D.--------6-6-6-6-8-6-6--
A.-----------------------
E.-----------------------

e.--6-6-6-6-6-6-6-6-6-6-6-6-6-6-6-6-6-6-6-6-6-6-
B.--9-9-9-8-8-8-6-6-6-9-9-9-9-8-8-8-6-6-6-6-6-6-
G.--8-8-8-8-8-8-8-8-8-8-8-8-8-8-9-9-7-7-7-8-8-8-
D.----------------------------------------------
A.----------------------------------------------
E.----------------------------------------------

e.-6-6-6-----------------
B.-6-6-6---------3-------
G.-7-7-7--5---3-5-5------ 
D.--------6--5-----------
A.-----------------------
E.-----------------------

Pre-coro:(ustedes sabrán como acomodar estos riffs deben escuchar la canción)

e.----3------4----3-------------------
B.---3------4----4--------3-----------
G.-----3------5----3----3------------- x2
D.---------------------3-3------------
A.------------------------------------
E.------------------------------------

Coro:(ustedes sabrán como acomodar estos riffs deben escuchar la canción)

e.------------------------------------
B.--4-----6-----8----4--4-6-----------
G.---5-----7-----8----5--------------- 
D.----6-----8-----8----5--------------
A.------------------------------------
E.------------------------------------

e.------------------------------------
B.--4-----6-----8----4--4-6-----------
G.---5-----7-----8----5---------------
D.----6-----8-----8----5--------------
A.------------------------------------
E.------------------------------------

e.-------------
B.--4-----6----
G.---5-----7---
D.----6-----8--
A.------------- 
E.-------------

Solo:
e.------------------------------------
B.------------------------------------
G.-8-8-8-7-7-7--8-8-8-5-5-5-7-7-7-----
D.------------------------------------
A.------------------------------------
E.------------------------------------

e.------------------------------------
B.------------------------------------
G.-8-8-8-7-7-7--8-8-8-5-5-5-----------
D.--------------------------8-8-8-----
A.------------------------------------
E.------------------------------------

e.------------------------------------
B.------------------------------------
G.-8-8-8-7-7-7--8-8-8-5-5-5-7-7-7-----
D.------------------------------------
A.------------------------------------
E.------------------------------------

e.------------------------------8-8-8-
B.---------------8-8-8-11-11-11-------
G.-8-8-8-10-10-10---------------------
D.------------------------------------
A.------------------------------------
E.------------------------------------

e.------------------------------------
B.------------------------------------
G.-8-8-8-7-7-7--8-8-8-5-5-5-7-7-7-----
D.------------------------------------
A.------------------------------------
E.------------------------------------

e.------------------------------------
B.------------------------------------
G.-8-8-8-7-7-7--8-8-8-5-5-5-----------
D.--------------------------8-8-8-----
A.------------------------------------
E.------------------------------------

e.------------------------------------
B.------------------------------------
G.-8-8-8-7-7-7--8-8-8-5-5-5-7-7-7-----
D.------------------------------------
A.------------------------------------
E.------------------------------------

e.------------------------------8-8-8-
B.---------------8-8-8-11-11-11-------
G.-8-8-8-10-10-10---------------------
D.------------------------------------
A.------------------------------------
E.------------------------------------

?Te amo??
e.-11-11-11-10-10-10-11-11-11-10-10-10-11-11-11-
B.-11-11-11-11-11-11-11-11-11-11-11-11-11-11-11-
G.----------------------------------------------
D.----------------------------------------------
A.----------------------------------------------
E.----------------------------------------------

e.-11-11-11-10-10-10-8--8--8--8-8-8-8--8--8------
B.-11-11-11-11-11-11-11-11-11-9-9-9-11-11-11-----
G.-----------------------------------------------
D.-----------------------------------------------
A.-----------------------------------------------
E.-----------------------------------------------

e.-11-11-11-10-10-10-13-13-13-11-11-11-15-15-15-----
B.-11-11-11-11-11-11-11-11-11-11-11-11-11-11-11-----
G.--------------------------------------------------
D.--------------------------------------------------
A.--------------------------------------------------
E.--------------------------------------------------

e.-13-13-13-11-11-11-10-10-10-8--8--8--8-8-8-8---
B.-11-11-11-11-11-11-11-11-11-11-11-11-9-9-9-11--
G.-----------------------------------------------
D.-----------------------------------------------
A.-----------------------------------------------
E.-----------------------------------------------

e.-11-11-11-10-10-10-11-11-11-10-10-10-11-11-11-
B.-11-11-11-11-11-11-11-11-11-11-11-11-11-11-11-
G.----------------------------------------------
D.----------------------------------------------
A.----------------------------------------------
E.----------------------------------------------

e.-11-11-11-10-10-10-8--8--8--8-8-8-8--8--8------
B.-11-11-11-11-11-11-11-11-11-9-9-9-11-11-11-----
G.-----------------------------------------------
D.-----------------------------------------------
A.-----------------------------------------------
E.-----------------------------------------------

e.-11-11-11-10-10-10-13-13-13-11-11-11-15-15-15-----
B.-11-11-11-11-11-11-11-11-11-11-11-11-11-11-11-----
G.--------------------------------------------------
D.--------------------------------------------------
A.--------------------------------------------------
E.--------------------------------------------------

e.-13-13-13-11-11-11-10-10-10-8--8--8--8-8-8-8---
B.-11-11-11-11-11-11-11-11-11-11-11-11-9-9-9-11--
G.-----------------------------------------------
D.-----------------------------------------------
A.-----------------------------------------------
E.-----------------------------------------------
Aviso: Este fichero es trabajo propio de su transcriptor y representa su interpretación personal de la canción. El material contenido en esta página es para exclusivo uso privado, por lo que se prohibe su reproducción o retransmisión, así como su uso para fines comerciales.
comentario del colaborador: [email protected]

Califica esta canción


Comentarios en Facebook