Enviado por:
cjs22

Callejeros, Ese O Ese

Imprimir
ESTE TEMA LO HACE PATO CON LA CAVERNA
el intro es este pero la guitarra tiene algún tipo de efecto pero igual suena bien escuchen el tema y sacen el tiempo

/: desliza 

INTRO:

     Bm          F#m      A        Bm              (x2)
1c|--------------------------------------------|
2c|---7/8----10--7-----------------------------|
3c|-----------------------7/8----10--7---------|
4c|--------------------------------------------|
5c|--------------------------------------------|
6c|--------------------------------------------|    (x2)



Bm                    F#m
  Hoy que soy joven, pero menos que antes.
A                      F#m           Bm
  Que aún lloro poco, pero más que ayer.
Bm                  F#m
  Hoy que me pesan los viernes de lluvia.
A                   F#m         Bm
  Hoy que me besan rara vez al mes.



Em7        A7    F#m7         G
  Ando buscando luces en las sombras,
Em7      A7     F#7       Bm7
  una palabra y un oído fiel.
Em7         A7     F#m7         G
  Ando queriendo que me den la mano,
Em7           F#m7     G              A7
  que no la suelten, que la agarren bien.


ESTRIBILLO CON TABLATURA:

    Quién puede solo?            Quién te necesita?
1c|----------------------| |----------------------------|
2c|---10---8-7-----------| |---10-----8-7---------------|
3c|--------------9----7--| |--------------9----7----11--|
4c|----------------------| |----------------------------|
5c|----------------------| |----------------------------|
6c|----------------------| |----------------------------|
        Quién acompaña?         Quién ya no da más?
1c|----------------------| |----------------------------|
2c|---10---8-7-----------| |---10-----8-7---------------|
3c|--------------9----7--| |--------------9-----11------|
4c|----------------------| |----------------------------|
5c|----------------------| |----------------------------|
6c|----------------------| |----------------------------| (X2)

ESTRIBILLO CON ACORDES :

D                      Bm
  Quién puede solo? Quién te necesita?
G                    Em7          A7
  Quién acompaña? Quién ya no da más?
D                      Bm
  Quién puede solo? Quién te necesita?
G                    Em7          A7
  Quién acompaña? Quién ya no da más?  (X2)


CON LOS MISMOS ACORDES:


  Hoy que a los dioses no les debo nada,
  pero a mi cuerpo una explicación.
  Hoy que mi mente ya no es inocente,
  que a sus lagunas las inundé yo.

  Ando buscando risas en los llantos,
  algún abrazo que ahorque mi temor.
  Ando queriendo que no duela tanto
  este camino ruín por donde voy.

  D                      Bm
  Quién puede solo? Quién te necesita?
G                    Em7          A7
  Quién acompaña? Quién ya no da más?
D                      Bm
  Quién puede solo? Quién te necesita?
G                    Em7          A7
  Quién acompaña? Quién ya no da más?


  Hoy que los tangos raspan con sus letras,
  que las praderas son una ilusión.
  Hoy que me río solo cuando bebo
  y que adormezco con mieles mi tos.

  Ando buscando oxígeno en el humo,
  una caricia de la realidad.
  Ando queriendo matar el ayuno
  de la esperanza y la felicidad.


D                      Bm
  Quién puede solo? Quién te necesita?
G                    Em7          A7
  Quién acompaña? Quién ya no da más?
D                      Bm
  Quién puede solo? Quién te necesita?
G                    Em7          A7
  Quién acompaña? Quién ya no da más?
Aviso: Este fichero es trabajo propio de su transcriptor y representa su interpretación personal de la canción. El material contenido en esta página es para exclusivo uso privado, por lo que se prohibe su reproducción o retransmisión, así como su uso para fines comerciales.
comentario del colaborador: LISTO TERMINE POR FIN ME COSTO MUCHO SACAR LAS TABLATURAS AGUANTE CALLEJEROS LA PUTA MADRE!!!!!

Califica esta canción


Comentarios en Facebook