Enviado por:
gelox

Mana, Bendita Tu Luz

intro:

1.era Guitarra Acústica (tab)
2.da  Guitara electroacústica (acordes)

e/-----------------------------------------------
B/-----3--------3----------3------------1--------
G/-------0--------2----------0------0---0-0------
D/---0--------0----------4--------2---4----------
A/---------------------2--------3---5------------
E/-3--------2------------------------------------

e/-----------------------------------------------
B/-----3--------3-----------3-------------1------
G/-------0--------2---------0-------0-----0-0----
D/---0--------0-----------4-------2-----4-------
A/----------------------2-------3-----5----------
E/-3--------2---------0--------------------------

Bendito el lugar        y el motivo de estar ahí
   G              D        Em         C       D
e/---------------------------------------------
B/-------3---------3-------3-------------1-----
G/-----0---------2---------0--------0----0---0-
D/---0---------0---------4--------2-----4---4--
A/---------------------2--------3-----5--------
E/-3----------2------0------------------------- 

Bendita la coincidencia       
   G              D        Em              C      D
e/---------------------------0-----------------
B/-------3---------3-------3--3----------1-----
G/-----0---------2---------0---0----0----0---0-
D/---0---------0---------4--------2----4---4---
A/---------------------2--------3-----5--------
E/-3----------2------0------------------------- 

Bendito el reloj         que nos puso puntual ahi
   G              D        Em              C      D
e/---3-------2-3-2--------0-----------------------
B/---3-------3-3-3-3----3--3---------------1------
G/-0---0-----------2---0-----0-----0----0?-0-0----
D/---------0----------4-----------2----4----4-----
A/-------------------------------3----5-----------
E/------------------------------------------------
bendita se tu presencia
   G              D        Em              C      D
e/---3-------2-3-2--------0-----------------------
B/---3-------3-3-3-3----3--3----------------------
G/-0---0-----------2---0-----0-----0----0?--------
D/---------0----------4-----------2----4----------
A/-------------------------------3--3/5-----------
E/------------------------------------------------

  Em       D          C
bendito dios por encontrarnos
e/-3-3-3---5-5-5------3-3-3------------
B/-5-5-5---7-7-7------5-5-5------------
G/-4-4-4---7-7-7------5-5-5--------?---
D/-5-5-5---7-7-7------5-5-5------------
A/-------------------------------------
E/-------------------------------------

  D      G
en el camino
e/-5-----3-3-------
B/-7-----3-3-------
G/-7-----4-4---?---
D/-7-----5-5-------
A/-----------------
E/-----------------
Em             D        C
y de quitarme esta soledad
e/-3-3-3---5-5-5------3-3-3------------
B/-5-5-5---7-7-7------5-5-5------------
G/-4-4-4---7-7-7------5-5-5--------?---
D/-5-5-5---7-7-7------5-5-5------------
A/-------------------------------------
E/-------------------------------------

        D
de mi destino
e/-5-5-5-----------
B/-7-7-7-----------
G/-7-7-7-------?---
D/-7-7-7-----------
A/-----------------
E/-----------------

           G D
bendita la luz
e/-----3------------2-3/2-
B/-----3-3-3--------3----3
G/---0----0------2--------
D/-------------0----------
A/------------------------
E/------------------------

            Am         C
bendita la luz de tu mirada
e/---3-------0------------------
B/---3-----1-------------1------
G/-0-----2--------0------0---0?-
D/--------------2------4----4---
A/------------3------5----------
E/------------------------------

          G D
bendita la luz
e/-----3------------2-3/2-
B/-----3-3-3--------3----3
G/---0----0------2--------
D/-------------0----------
A/------------------------
E/------------------------
 
          Am          C
bendita la luz de tu mirada
e/---3-------0------------------
B/---3-----1-------------1------
G/-0-----2--------0------0---0?-
D/--------------2------4----4---
A/------------3------5----------
E/------------------------------

        
           G
desde el alma

e/-----?------3---2--0-0-0-2?3-5-3-
B/---3-----------------------------
G/-----0--2h4?-4h2---0-0-0-2-4-5-4-
D/--0------------------------------
A/---------------------------------
E/-3-------------------------------

e/5-7-8-10-7--7-8-10-7-8-10-10/12-
B/--------------------------------
G/4-5-7-9--------------------------
D/--------------------------------
A/--------------------------------
E/--------------------------------

e/-10---7-5-5-7-3-5-2-3/2--0-----
B/------8-7-7-8-5-7-3-5/3-1--3-3-
G/----7----------------------4-4-
D/-------------------------------
A/-------------------------------
E/-------------------------------

 G             D
benditos ojos que me esquivaban
e/---3-------2-3-2----
B/---3-------3-3-3-3--
G/-0---0-----------2--
D/---------0----------
A/--------------------
E/--------------------

Em          C            
simulaban desde que me ignoraban
----0-----------------------
--3--3----------------------
-0-----0-----0----0?--------
4-----------2----4----------
A/---------3----5-----------
E/--------------------------

   G              D
y de repente sostienes la mirada
e/---3-------2-3-2----
B/---3-------3-3-3-3--
G/-0---0-----------2--
D/---------0----------
A/--------------------
E/--------------------

Em          D
durom diri duron diriii
----0-----------------------
--3--3----------------------
-0-----0-----0----0?--------
4-----------2----4----------
A/---------3----5-----------
E/--------------------------

Em       D             C
bendito dios por encontrarnos
e/-3-3-3---5-5-5------3-3-3------------
B/-5-5-5---7-7-7------5-5-5------------
G/-4-4-4---7-7-7------5-5-5--------?---
D/-5-5-5---7-7-7------5-5-5------------
A/-------------------------------------
E/-------------------------------------


D         G
en el camino
e/-5-----3-3-------
B/-7-----3-3-------
G/-7-----4-4---?---
D/-7-----5-5-------
A/-----------------
E/-----------------
Em             D        C
y de quitarme esta soledad
e/-3-3-3---5-5-5------3-3-3------------
B/-5-5-5---7-7-7------5-5-5------------
G/-4-4-4---7-7-7------5-5-5--------?---
D/-5-5-5---7-7-7------5-5-5------------
A/-------------------------------------
E/-------------------------------------
 
         D
de mi destino
e/-5-5-5-----------
B/-7-7-7-----------
G/-7-7-7-------?---
D/-7-7-7-----------
A/-----------------
E/-----------------

            G-D
bendita la luz
e/-----3------------2-3/2-
B/-----3-3-3--------3----3
G/---0----0------2--------
D/-------------0----------
A/------------------------
E/------------------------

            Am         C
bendita la luz de tu mirada
e/---3-------0------------------
B/---3-----1-------------1------
G/-0-----2--------0------0---0?-
D/--------------2------4----4---
A/------------3------5----------
E/------------------------------
 
           G-D
bendita la luz
e/-----3------------2-3/2-
B/-----3-3-3--------3----3
G/---0----0------2--------
D/-------------0----------
A/------------------------
E/------------------------

           Am          C
bendita la luz de tu mirada
    
ohhhh

                    




 G                                  D
gloria divina esta suerte del buen tino
e/--------------------------------------------
B/-----0----------------------------3----3----
G/----0----------------------------2----2-2---
D/---0----------------------------0----0---0--
A/--------------------------------------------
E/--3----------------------------3------------

F                           Am
de en contrarte justo ahí en medio del camino
e/--------------------------------------------
B/-----1----------------------1-----------1---
G/----2---------------------2------------2-2--
D/---3--------------------2-------------2---2-
A/--3-------------------0---------------------
E/-1------------------------------------------

D                                G
gloria al cielo de encontrarte ahora

e/-------------------------------------------
B/-------0--------------------------0----------
G/-----2--------------------------0---0----
D/---0--------------------------0------0-------
A/-----------------------------------------
E/-2------------------------------------------

Em                D                         Em
llevarte en mi soledad y coincidir en mi destino
e/------------------------------------------------
B/----0--------------0----------------------------
G/---0-0------------2--------0-2------------------
D/--1---1----------0-------2----------------2-----
A/-0-----------------------------------2------2---
E/---------------2-------------------0----0----0--

D               G
en el mismo destino

e/---------------------------------------
B/--------------------------------7-8--7-
G/-----5-7-5-4h5h4------------7-9--------
D/-5-7-------------7---7-9-10------------
A/---------------------------------------
E/--------------------------------------

e/-5---3---2?-0---0-----
B/---5---3--1---0-----3-
G/-------------------4--
D/----------------------
A/----------------------
E/----------------------



e/---------7-5-3-3-2-3-5--
B/--3-1-3--8-7-5-5-3-5-7--
G/--4-2-4-----------------
D/------------------------
A/------------------------
E/------------------------

e/-------------------7-------7/8---------------
B/---7-8-7-8-10-8-10----8-10-----10-8-7--------
G/-9-----------------------------------9-7-5-4-
D/---------------------------------------------
A/---------------------------------------------
E/---------------------------------------------



            G-D
bendita la luz
e/-----3------------2-3/2-
B/-----3-3-3--------3----3
G/---0----0------2--------
D/-------------0----------
A/------------------------
E/------------------------

            Am         C
bendita la luz de tu mirada
e/----------0------------------
B/--------1-------------1------
G/------2--------0------0---0?-
D/--------------2------4----4---
A/------------3------5----------
E/------------------------------

            G-D
bendita la luz
e/-----3------------2-3/2-
B/-----3-3-3--------3----3
G/---0----0------2--------
D/-------------0----------
A/------------------------
E/------------------------

           Am          C
bendita la luz de tu mirada
e/---------0------------------
B/--------1-------------1------
G/------2--------0------0---0?-
D/--------------2------4----4---
A/------------3------5----------
E/------------------------------

          G       D
bendita mirada oh oh
e/-----3------------2-3/2-
B/-----3-3-3--------3----3
G/---0----0------2--------
D/-------------0----------
A/------------------------
E/------------------------

          Am             C
bendita mirada desde el alma
e/----------0------------------
B/--------1-------------1------
G/------2--------0------0---0?-
D/--------------2------4----4---
A/------------3------5----------
E/------------------------------
 
    G                 D
tu mirada             oh oh
e/-----3------------2-3/2-
B/-----3-3-3-------3----3-
G/---0----0------2--------
D/-------------0----------
A/------------------------
E/------------------------

 G                        D  
 bendita bendita bendita mirada
e/----------0------------------
B/--------1-------------1------
G/------2--------0------0---0?-
D/--------------2------4----4---
A/------------3------5----------
E/------------------------------
 
  Am                 C
bendita tu alma y bendita tu luz
e/--0-0-0-2-3-5-3-5-7-8-10-7-----
B/-------------------------------
G/--0-0-0-2-4-5-4-5-7-9--------?-
D/-------------------------------
A/-------------------------------
E/-------------------------------
      G       D
tu mirada oh oh
               Am            C    G           
oh no te digo es tan bendita   tu luz amor amor
   

e/----------0------------------
B/--------1-------------1------
G/------2--------0------0---0?-
D/--------------2------4----4---
A/------------3------5----------
E/------------------------------
D       Am           C  
 y tu mira-ada            oh 
G                     D
Bendito el reloj y bendito el lugar
e/-----3------------2-3/2-
B/-----3-3-3-------3----3
G/---0----0------2--------
D/-------------0----------
A/------------------------
E/------------------------

Am                     C
benditos tus besos cerquita del mar
e/----------0------------------
B/--------1-------------1------
G/------2--------0------0---0?-
D/--------------2------4----4---
A/------------3------5----------
E/------------------------------
       G     D          Am
y tu mirada oh oh amor amor

e/-----3------------2-3/2-
B/-----3-3-3-------3----3
G/---0----0------2--------
D/-------------0----------
A/------------------------
E/------------------------
              C        D       G
que bendita tu mirada tu mirada amor
e/----------0------------------
B/--------1-------------1------
G/------2--------0------0---0?-
D/--------------2------4----4---
A/------------3------5----------
E/------------------------------
Aviso: Este fichero es trabajo propio de su transcriptor y representa su interpretación personal de la canción. El material contenido en esta página es para exclusivo uso privado, por lo que se prohibe su reproducción o retransmisión, así como su uso para fines comerciales.

Califica esta canción


Comentarios en Facebook