Enviado por:
GELOX








Mana, Rayando El Sol

intro:

     G          D         Em          C
1. --------------------------------------------------|
2. -----3----------3-----------3------------3--------|
3. ----0--4-5-----2--4-5------0--4-5------0---4-5----|
4. ---0----------0-----------2-----------2-----------|
5. -----------------------0-2---------2-3------------|
6. --3----------2------------------------------------|

     G         Bm        C        D         Em

1. -----------------------------------3-2----------3-|
2. -----3----------3---------1--1--------------------|
3. ----0--4-5-----4--4--------------2-----2-----2/4--|
4. ---0----------4---------2--2---0------------------|
5. ----------------------3-----------------0-1-2-----|
6. --3----------2------------------------------------|



               G   C                    D   C
   Rayando el sol,         rayando por ti,
1. -----------------3--------------------3----2----------|
2. -----------------0-----------------------2----2-------|
3. -----------------0------------------2-----------------|
4. -----------------0------------------------------------|
5. -----------------2-----0-2-3--------------------0-2-3-|
6. -----------------3------------------------------------|

1. -------------|
2. ---------3/1-|
3. ---0---------|
4. -------------|
5. -------------|
6. -------------|
 G                  C            D   C
 esta pena me duele, me quema sin tu amor,
1. ------3---3-------0---0---------3---3----------3-|
2. ------0-----0-----1-----1---------2---2----1-3---|
3. ------0-0---------0-0---------2------------------|
4. ------0-----------2------------------------------|
5. ------2-----------3------------------------------|
6. ------3-----------0------------------------------|

         Bm              C          D   C
   no me has llamado, estoy desesperado,
1. -------2-----3--------0-----0---------x-x-x-x-x--|
2. -------3---3----------1---1-----------x-x-x-x-x--|
3. -------4-4------------0-0-------------x-x-x-x-x--|
4. -------4--------------2---------------x-x-x-x-x--|
5. -------2--------------3---------------x-x-x-x-x--|
6. ----------------------0---------------x-x-x-x-x--|

        Bm           C                D
   son muchas lunas las que te he llorado
1. -----2-2----------0-0---------------2-2-2------|
2. -----3-----3------1-----1-----------3-3-3------|
3. -----3---3--------0---0-------------2-2-2------|
4. -----4------------2-----------------0-0-0------|
5. -----2------------3-----------------0-0-0------|
6. ------------------0----------------------------|


CORO:

               G       D           Em        C
   Rayando el sol, ohe oh, desesperacion,
1. -----------------------------------------------|
2. -----------------------------------------------|
3. --------------------7/----------9/---7/9--/5---|
4. ------------5/------7/----------9/---7/9--/5---|
5. ------------5/------5/----------7/---5/7--/3---|
6. ------------3/---------------------------------|

           G              Bm                C   D
   es mas facil llegar al sol que ha tu corazon,
1. --------------------------------------------------------|
2. --------------------------------------------------------|
3. ------------------------4/---------------/5------0------|
4. ---------5/-------------4/---------------/5?-0/2---0/2-0|
5. ---------5/-------------2/---------------/3-------------|
6. ---------3/---------------------------------------------|

                 G     D                Em  C
   me muero por ti, ohe oh, viviendo sin ti,
1. -----------------------------------------------|
2. -----------------------------------------------|
3. --------------------7/----------9/---7/9--/5---|
4. ------------5/------7/----------9/---7/9--/5---|
5. ------------5/------5/----------7/---5/7--/3---|
6. ------------3/---------------------------------|

           G               Bm           C      D
   y no aguanto, me duele tanto estar asi...
1. --------------------------------------------------------|
2. --------------------------------------------------------|
3. ------------------------4/----------/5----5/7/5-5/9-7---|
4. ---------5/-------------4/----------/5?---5/7/5-5/9-7---|
5. ---------5/-------------2/----------/3------------------|
6. ---------3/---------------------------------------------|

                 Em
   ...rayando el sol.
1. -------------------12--12-10-8-7--------|
2. ------------------------------------10-8~7-|
3. -------------------------------------------|
4. -------------------------------------------|
5. -------------------------------------------|
6. -------------------------------------------|



                 G   C               D        C
   A tu casa yo fui,         y no te encontre,
1. ---------------3-------------------3---2---------3-|
2. ---------------0---------------------2---2---1-3---|
3. ---------------0-----------------2-----------------|
4. ---------------0-----------------------------------|
5. ---------------2--0-2-3----------------------------|
6. ---------------3-----------------------------------|
        G                      C                 D  C
en el parque, en la plaza,en el cine yo te busque,
1-------3----------------------0------3-3-2-2-3-2---0-|
2-------0----------------------1------3-3-3-3-3-3---1-|
3-------0----------------------0------2-2-2-2-2-2---0-|
4-------0----------------------2------0-0-0-0-0-0---2-|
5-------2----------------------3------0-0-0-0-0-0---3-|
6-------3----------------------0----------------------|

      Bm         C                      D     C
   te tengo atrapada entre mi piel y mi alma,
1. ----2-----3---0----------------------3-2--------|
2. ----3-0-3-----1---0-5----------------3-3--------|
3. ----4---------0-0--------------------2-2--------|
4. ----4---------2----------------------0-0--------|
5. ----2---------3----------------------0-0--------|
6. --------------0---------------------------------|

              Bm             C               D
   mas ya no puedo tanto y quiero estar junto a ti,
1. -----2-2----------0-0---------------------2-2-2-|
2. -----3-----3------1-----1-----------------3-3-3-|
3. -----3---3--------0---0-------------------2-2-2-|
4. -----4------------2-----------------------0-0-0-|
5. -----2------------3-----------------------0-0-0-|
6. ------------------0-----------------------------|


- CORO

               G       D             Em   C
   Rayando el sol, ohe oh, desesperacion,
1. -----------------------------------------------|
2. -----------------------------------------------|
3. --------------------7/----------9/---7/9--/5---|
4. ------------5/------7/----------9/---7/9--/5---|
5. ------------5/------5/----------7/---5/7--/3---|
6. ------------3/---------------------------------|

            G              Bm                 C   D
   es mas facil llegar al sol que ha tu corazon,
1. --------------------------------------------------------|
2. --------------------------------------------------------|
3. ------------------------4/---------------/5------0------|
4. ---------5/-------------4/---------------/5?-0/2---0/2-0|
5. ---------5/-------------2/---------------/3-------------|
6. ---------3/---------------------------------------------|

                        G      D                Em  C
 me muero por ti, ohe oh, viviendo sin ti,
1. -----------------------------------------------|
2. -----------------------------------------------|
3. --------------------7/----------9/---7/9--/5---|
4. ------------5/------7/----------9/---7/9--/5---|
5. ------------5/------5/----------7/---5/7--/3---|
6. ------------3/---------------------------------|

           G               Bm           C      D
   y no aguanto, me duele tanto estar asi... oye?
1. --------------------------------------------|
2. --------------------------------------------|
3. ------------------------4/----------/5------|
4. ---------5/-------------4/----------/5?-----|
5. ---------5/-------------2/----------/3------|
6. ---------3/---------------------------------|

                 Em
   ...rayando el sol.


SOLO:
1.-12b-12p10-8-10/12--12-10-------------------------|
2.--------------------------10-10------------------|
3.--------------------------------12-11-12-11------|
4.--------------------------------------------12---|
5.-------------------------------------------------|
6.-------------------------------------------------|

Esta parte es rápida
1-------------------------------------------------------------
2-----------------12/13/12------------12-13-15-13-12----------
3--------11-12-14----------14-12-14/15---------------14/15/14-
4--12-14------------------------------------------------------
5-------------------------------------------------------------
6-------------------------------------------------------------

1 ---------------------------------------------------------------|
2 --------------------------------------------------------10/12--|
3 -12----12---------------------12-12-11-11-9-9---9-11-12--------|
4 ----14----14-12-10-9--------------------------12---------------|
5 -----------------------12-10-----------------------------------|
6 ---------------------------------------------------------------|

Armonica solo

               G       D             Em   C
   Rayando el sol, ohe oh, desesperacion,
1. -----------------------------------------------|
2. -----------------------------------------------|
3. --------------------7/----------9/---7/9--/5---|
4. ------------5/------7/----------9/---7/9--/5---|
5. ------------5/------5/----------7/---5/7--/3---|
6. ------------3/---------------------------------|


           G              Bm                 C   D
es mas facil llegar al sol que ha tu corazon,
1. --------------------------------------------------------|
2. --------------------------------------------------------|
3. ------------------------4/---------------/5------0------|
4. ---------5/-------------4/---------------/5?-0/2---0/2-0|
5. ---------5/-------------2/---------------/3-------------|
6. ---------3/---------------------------------------------|
            G         D         Em        C
me muero por ti, ohe oh, viviendo sin ti
1. -----------------------------------------------|
2. -----------------------------------------------|
3. --------------------7/----------9/---7/9--/5---|
4. ------------5/------7/----------9/---7/9--/5---|
5. ------------5/------5/----------7/---5/7--/3---|
6. ------------3/---------------------------------|
            G         Bm        C       D
y no aguanto me duele tanto estar asi
1. -----------------------------------------------|
2. -----------------------------------------------|
3. ----------------4-4-4-----5-5-5-----7-7-7------|
4. -----5--5-5-----4-4-4-----5-5-5-----7-7-7------|
5. -----5--5-5-----2-2-2-----3-3-3-----5-5-5------|
6. -----3--3-3------------------------------------|

outro:
            G
rayando el sol
  D
rayando
 Em
rayando
  C
rayando
 G       Bm        C
Ay, Ay, Ay, Ay, Rayando El Sol
 G
Rayando.
 D
Rayando
 Em
Rayando Por Ti
  C
Rayando.
Aviso: Este fichero es trabajo propio de su transcriptor y representa su interpretación personal de la canción. El material contenido en esta página es para exclusivo uso privado, por lo que se prohibe su reproducción o retransmisión, así como su uso para fines comerciales.

Califica esta canción


Comentarios en Facebook