Acordes y tablaturas para guitarra

Acordes y Tablaturas
Usuario: Password:

Buscar:
Acordes y Tablaturas >> Letra S >> Acordes de SAM SAM >> AMARGA NAVIDAD
Acordes de AMARGA NAVIDAD, SAM SAM

AMARGA NAVIDAD

SAM SAM






a.bm.d.em.fsosm.g.
INTRODUCCIÓN

E|------------------|--------|
B|------------------|--------|
G|--7---7---7---7s9-|-6------|
D|----7---7---7-----|---7----|
A|------------------|--------|
E|------------------|--------|


|---------------------|----------|
|---------------------|----------|
|---------------------|----------|
|-7-7h9--9p7-5--------|-5-9-7----|
|--------------9-7--9-|----------|
|---------------------|----------|


|------------------|-----------|
|------------------|-----------|
|-7----7---7---7s9-|-6---------|
|----7---7---7-----|------7----|
|------------------|-----------|
|------------------|-----------|


|-------------------|--------|
|-------------------|--------|
|-------------------|--------|
|-7-7h9-9p7-5-------|-5-9----|
|-------------9-7-9-|--------|
|-------------------|--------|

   A    G    F#m
|--9--9-7-7--5----|
|-10-10-8-8--7----|
|--9--9-7-7--6----|
|-----------------|
|-----------------|
|-----------------|

               D A-D                      Bm
ya no tiene mamá     el pequeño esta muy solo

                  G                 A 
y se acerca navidad y regalos no habrá ETC.

       G                          A 
Los adornos por la calle ya lo anuncian 

       G                     A 
Las posadas noche buena navidad

       G                    A 
Las piñatas colaciones y sonrisas


      G                      A 
Los regalos y abrazos no habrá

        G                     Bm
Que destino tan ingrato y perverso 

         Em
que se ensaña con un niño en navidad
  A    G  F#m  Em
|-9--|-7-|-5-|-3-|
|-10-|-8-|-7-|-5-|
|-9--|-7-|-6-|-4-|
|----|---|---|---|
|----|---|---|---|
|----|---|---|---|
D                              F#m
pobres de los niños que en la calle 

G                          A 
van pidiendo un pedazo de pan

D                        F#m
ángeles caídos desde el cielo 

   G                             A 
que vagan por las calles sin hogar

        G                     Bm
Que destino tan ingrato y perverso 

         Em
que se ensaña con un niño en navidad
  
 A    G    F#m
|--9--9-7-7--5----|
|-10-10-8-8--7----|
|--9--9-7-7--6----|
|-----------------|
|-----------------|
|-----------------|

solo:
||--5-10-9-7-5-5h7----|
||o-------------------|
||--------------------|
||--------------------|
||o-------------------|
||--------------------|


|--------------------||
|-7-7-5----5-5h7----o||
|--------7-----------||
|--------------------||
|-------------------o||
|--------------------||

|------------------------|
|-12-10-12-10-8-10-12----|
|------------------------|
|------------------------|
|------------------------|
|------------------------|


|--------------------9--|--9-7--7-5--5-3----|
|-12-10-12-10-12-13-10--|-10-8--8-7--7-5----|
|--------------------9--|--9-7--7-6--6-4----|
|-----------------------|-------------------|
|-----------------------|-------------------|
|-----------------------|-------------------|
        G                     Bm
Que destino tan ingrato y perverso 

         Em
que se ensaña con un niño en navidad

A    G  F#m  Em    D
|-9--|-7-|-5-|-3-|-2-5-----0-2-2-2|
|-10-|-8-|-7-|-5-|-3---3-3--------|
|-9--|-7-|-6-|-4-|-2--------------|
|----|---|---|---|-0--------------|
|----|---|---|---|----------------|
|----|---|---|---|----------------|

Que te parecio? Calificalo con estrellas!!

Rating: 5.3/10 (10 votos)

Este fichero es trabajo propio de su transcriptor y representa su interpretación personal de la canción. El material contenido en esta página es para exclusivo uso privado, por lo que se prohibe su reproducción o retransmisión, así como su uso para fines comerciales.


Comentario de johas
JOHANY "CVG"
Deja tus comentarios:
Letras de canciones | Musica Independiente