Acordes y tablaturas para guitarra

Acordes y Tablaturas
Usuario: Password:

Buscar:
Acordes y Tablaturas >> Letra L >> Acordes de Los Mojarras >> Triciclo Perú
Tablatura de Triciclo Perú, Los Mojarras

Triciclo Perú

Los Mojarras






E   -----------8-10-12-10-8-----------8-10-12-10-8--------
B   --10-10--------------------10-10----------------------
G   ------------------------------------------------------
D   ------------------------------------------------------
A   ------------------------------------------------------
E   ------------------------------------------------------


E   ---------6-8-10-8-6----------6-8-9-8-6----------------
B   --7-7-------------------7-7---------------------------
G   ------------------------------------------------------
D   ------------------------------------------------------
A   ------------------------------------------------------
E   ------------------------------------------------------



E   ---------7-8-10-8-7----------7-8-10-8-7---------------
B   --8-8-------------------8-8---------------------------
G   ------------------------------------------------------
D   ------------------------------------------------------
A   ------------------------------------------------------
E   ------------------------------------------------------


E   ----------8-10/12-10-12-10-12-10-12-10----------------
B   --10-10-----------------------------------------------
G   ------------------------------------------------------
D   ------------------------------------------------------
A   ------------------------------------------------------
E   ------------------------------------------------------






Triciclo con zapato un vaso de chicha un buen reloj
     Am                          F         
camisas chucherias de todo en las calles y en monton
      Am                             F
persigna la primera venta las calles estan repletas 
      G               F          G               F
empuja el triciclo ambulante llamado PERU
      G                 F               Am


Los micros estan repletos la gente se apresta a trabajar
       Am                                F
obreros empleados doctor enfermera y hasta un capitan
   Am                          F
van mirando sus relojes mientras el microbusero
        G           F      G                F
impulsa estos pistones llamados PERU
     G              F              Am

coro

Todos a la cima todos quieren llegar 
   Am           
no importa el camino todos van a llegar a la cima felicidad 
     Am                            Am         Dm     Am
el pobre a ser rico el rico el rico a ser rey 
  Am                    Am       
el rey a la gloria la gloria inmortal resurreccion
                         Am                   Dm
vuelve a empezar muchos zapatos vamos a gastar para llegar
  Am                                      A7


Alma para conquistarte corazon para querete 
   Am                      G
y vida para vivirla junto a ti
   F                  Am


SI,PERU
     Am

Que te parecio? Calificalo con estrellas!!

Rating: 7.1/10 (59 votos)

Este fichero es trabajo propio de su transcriptor y representa su interpretación personal de la canción. El material contenido en esta página es para exclusivo uso privado, por lo que se prohibe su reproducción o retransmisión, así como su uso para fines comerciales.


Comentario de LokoRapsTK
Fue una de los primeros cover q´ hicimos con mi banda
Deja tus comentarios:
Letras de canciones | Musica Independiente