Enviado por:
javitox360

Camila, Besame

C                        Em
e|-3-----2-----0----------|-3-----2-----0----------|
B|---0-----0-----0---3~---|---0-----0-----0---3~---|
G|-----0-----0-----0----0-|-----0-----0-----0----0-|
D|------------------------|------------------------|
A|-3----------------------|------------------------|
E|------------------------|-0----------------------|

   C                        Em
e|-3-----2-----0----------|-3-----2-----0~-|
B|---0-----0-----0---3~---|---0-----0------|
G|-----0-----0-----0----0-|-----0-----0----|
D|------------------------|----------------|
A|-3----------------------|----------------|
E|------------------------|-0--------------|

Se repite casi toda la canción... a excepción de los coros...


     C        Em           C          Em
Bésame a destiempo sin piedad y en silencio...
     C             Em              C           Em
Bésame, frena el tiempo... has crecer lo que siento


    Am     Bm                           Em  -  D/F#
Bésame como si el mundo se acabara después,
    Am      Bm                           Em  -  D/F#
Bésame, y beso a beso por el cielo al revés,
    Am        B7           Em  -  Em/D  -  A 
Bésame sin razón, porque quiere el corazón,
C
Bésame...


C   Em   C   Em


       C         Em              C        Em9 <-- Arpegiado
Siénteme en el viento, mientras yo muero lento...
     C       Em           C            Em
Bésame sin motivos y estaré siempre contigo


    Am     Bm                           Em  -  D/F#
Bésame como si el mundo se acabara después
    Am      Bm                           Em  -  D/F#
Bésame, y beso a beso por el cielo al revés,
    Am        B7           Em  -  Em/D  -  A 
Bésame sin razón, porque quiere el corazón,
C
Bésame...


C   Em   C   Em


Bésame...
    Am     Bm                           Em  -  E
Bésame como si el mundo se acabara después,
    Am      Bm                           Em  -  D/F#
Bésame, y beso a beso por el cielo al revés,
    Am        B7           Em  -  Em/D  -  A 
Bésame sin razón, porque quiere el corazón,
C
Bésame...

 C
Bésame así, sin compasión,
 Em
Quédate en mí sin condición,
 Am                 D
Dame tan sólo un motivo
            C               Em
Y me quedo yo... y me quedo yo...
            C               Em9
Y me quedo yo... y me quedo yo...
Aviso: Este fichero es trabajo propio de su transcriptor y representa su interpretación personal de la canción. El material contenido en esta página es para exclusivo uso privado, por lo que se prohibe su reproducción o retransmisión, así como su uso para fines comerciales.
comentario del colaborador: aca esta espero que sea un buen aporte

Califica esta canción


Comentarios en Facebook