Acordes y tablaturas para guitarra

Acordes y Tablaturas
Usuario: Password:

Buscar:
Acordes y Tablaturas >> Letra B >> Acordes de Bon Jovi >> Living On A Prayer
Tablatura de Living On A Prayer, Bon Jovi

Living On A Prayer

Bon Jovi






INTRO:

e|----------------------
B|----------------------
G|----------------------
D|-----------------------
A|---7---5--------5------
E|-0---7----0-0-7--------
Em
Tommy used to work on the docks
Union's been on strike
He's down on his luck
...its tough... so tough
e|---------------------------------------------
B|---------------------------------------------
G|-5----------7------9-------------------------
D|-5----------7------9-------------------------
A|-3----------5------7-------7---5--------5----
E|-------------------------0---7----0-0-7------ (C-D-E)

Em
Gina works the diner all day
Working for her man,
she brings home her pay
    Am   D    Em
For love, for love

she says we´ve got to hold on to what we´ve got
e|-------------------------------------------------
B|-------------------------------------------------
G|-------------------------------------------------
D|----------------------5---7------5----7-----9----
A|----------------------3---5------3----5-----7----
E|------------------------------------------------- (C-D-C-D-E)

cause it doesnt make a diference if we make it or not
e|-----------------------------------------------------
B|-----------------------------------------------------
G|-----------------------------------------------------
D|----------5--------------7-------------5------7---9--
A|----------3--------------5-------------3------5---7--
E|----------------------------------------------------- (C-D-C-D-E)

 we´ve got each other and thats a lot for love...
e|---------------------------------------------------
B|---------------------------------------------------
G|---------------------------------------------------
D|------5-------7-----------5---7--9---2---5---------
A|------3-------5-----------3---5--7---2---3-3-3-3-3-
E|-------------------------------------0------------- (C-D-C-D-E-C)






 we´ll give it a shot!
e|-----------------------
B|-----------------------
G|-----------------------
D|------5----7-----9-----
A|------3----5-----7-----
E|----------------------- (C-D-E)




CORO:

 woooooh, we´re halfway there, woooooh! we´re livin on a prayer
e|--------------------------------------------------------------
B|--------------------------------------------------------------
G|--------------------------------------------------------------
D|----5----7--------------------------5--7---------------------
A|-2--3----5---------------5-------5--3--5---------------------
E|-0-----------------------3---0-2-3--------------------------- (E-C-D-G-C-D)

Em      C              D
Take my hand and we'll make it I swear
livin on a prayer!!!
e|----------------------
B|----------------------
G|----------------------
D|-5----5-----5---------
A|-3----3-----3---------
E|----------------------

e|----------------------
B|----------------------
G|----------------------
D|-----------------------
A|---7---5--------5------
E|-0---7----0-0-7--------


Em
Tommy's got his six string in hock
Now he's holding in what he used
To make it talk
   Am    D     Em
So tough, it's tough
e|---------------------------------------------
B|---------------------------------------------
G|-5----------7------9-------------------------
D|-5----------7------9-------------------------
A|-3----------5------7-------7---5--------5----
E|-------------------------0---7----0-0-7------ (C-D-E)
Em
Gina dreams of running away
When she cries in the night
Tommy whispers:
           Am   D Em
"Baby it's okay, someday" 















we´ve got to hold on to what we´ve got
e|-------------------------------------------------
B|-------------------------------------------------
G|-------------------------------------------------
D|----------------------5---7------5----7-----9----
A|----------------------3---5------3----5-----7----
E|------------------------------------------------- (C-D-C-D-E)

cause it doesnt make a diference if we make it or not
e|-----------------------------------------------------
B|-----------------------------------------------------
G|-----------------------------------------------------
D|----------5--------------7-------------5------7---9--
A|----------3--------------5-------------3------5---7--
E|----------------------------------------------------- (C-D-C-D-E)

 we´ve got each other and thats a lot for love...
e|---------------------------------------------------
B|---------------------------------------------------
G|---------------------------------------------------
D|------5-------7-----------5---7--9---2---5---------
A|------3-------5-----------3---5--7---2---3-3-3-3-3-
E|-------------------------------------0------------- (C-D-C-D-E-C)

 we´ll give it a shot!
e|-----------------------
B|-----------------------
G|-----------------------
D|------5----7-----9-----
A|------3----5-----7-----
E|----------------------- (C-D-E)

woooooh, we´re halfway there, woooooh! we´re livin on a prayer
e|--------------------------------------------------------------
B|--------------------------------------------------------------
G|--------------------------------------------------------------
D|----5----7--------------------------5--7---------------------
A|-2--3----5---------------5-------5--3--5---------------------
E|-0-----------------------3---0-2-3--------------------------- (E-C-D-G-C-D)

Em      C              D
Take my hand and we'll make it I swear
livin on a prayer!!!
e|----------------------
B|----------------------
G|----------------------
D|-5----5-----5---------
A|-3----3-----3---------
E|----------------------
C
livin' on a prayer...

SOLO: la base es E-C-D-G-C-D

e|---------------------/-12h14-15-------------------------/-
B|---------------------/----------15-12h13-15-15b!-15br---/-
G|---------------------/----------------------------------/-
D|-------5h7-7b!-7-----/----------------------------------/-
A|-7p5h7-----------7-5-/----------------------------------/-
E|---------------------/----------------------------------/-

e|--------------------------------/
B|-12-12-12-13--12-10-------------/
G|-12-12-12-14--12-10-10----------/
D|-----------------------12----12-/
A|--------------------------12-12-/
E|--------------------------------/

e|-------------------15h17b!-17----
B|----------15h16h17---------------
G|-14h15h16------------------------
D|---------------------------------
A|---------------------------------
E|--------------------------------- (Fast)

we´ve got to hold on, ready or not
e|-------------------------------------
B|-------------------------------------
G|-------------------------------------
D|-------------5---7----5----7---2-----
A|-------------3---5----3----5---2-----
E|-------------------------------0------

 you live for the fight when its all that you got
e|--------------------------------------------------
B|--------------------------------------------------
G|----5--------------------------5-------7-----9----
D|----3----3--3--3--3------------3-------5-----7----
A|--------------------------------------------------
E|--------------------------------------------------

CORO:

 wooooh! we`re halfway there, wooooh!! livin on a prayer
e|-------------------------------------------------------------
B|-------------------------------------------------------------
G|-7-----------------------------------------------------------
D|-5-8----10----------------------8----10----------------------
A|---6----8--------------------8--6-----8----------------------
E|-----------------------------6------------------------------- 
(G-D#-F-Bb-D#-F)
Em      C              D
Take my hand and we'll make it I swear
livin on a prayer!!!
e|----------------------
B|----------------------
G|----------------------
D|-5----5-----5---------
A|-3----3-----3---------
E|----------------------

Que te parecio? Calificalo con estrellas!!

Rating: 6.8/10 (33 votos)

Este fichero es trabajo propio de su transcriptor y representa su interpretación personal de la canción. El material contenido en esta página es para exclusivo uso privado, por lo que se prohibe su reproducción o retransmisión, así como su uso para fines comerciales.


Comentario de shad9669
aqui esta, por favor, no olviden calificarlo con estrellas cuidense y gracias por tomarse el tiempo para leerlas
Deja tus comentarios:
Letras de canciones | Musica Independiente