Acordes y tablaturas para guitarra

Acordes y Tablaturas
Usuario: Password:

Buscar:
Acordes y Tablaturas >> Letra M >> Acordes de METALLICA >> Holier Than Thou
Tablatura de Holier Than Thou, METALLICA

Holier Than Thou

METALLICA






Intro
  Moderately Fast Rock Q=166
            E5
 4/4
  Gtrs I, II
                      PM------------|
  H    Q  E E     +E  E S S E S S E E E  4x
|-------------||-------------------------||
|-------------||o-----------------------o||
|-------------||-------------------------||
|-----------2-||--(2)-----------------2--||
|-----------2-||o-(2)-----------------2-o||
|-----------0-||--(0)-0-0-0-0-0-0-0-0-0--||
|
| W                W                     4x
|-------------||-------------------------||
|-------------||o-----------------------o||
|-------------||-------------------------||
|-------------||-------------------------||
|-------------||o-----------------------o||
|-------------||-------------------------||


  E5
      PM------------|         PM--------------|
  +E  E S S E S S E E E   +E  E S S E  S  S E E E
|-----------------------|--------------------------|
|-----------------------|--------------------------|
|-----------------------|--------------------------|
|-(2)-----------------2-|-(2)-------------------2--|
|-(2)-----------------2-|-(2)-------------------2--|
|-(0)-0-0-0-0-0-0-0-0-0-|-(0)-0-0-0-0--0--0-0-0-0--|
|
| Gtr III
|  H          Q     E E   +H          +E    E E E
|-----------------------|--------------------------|
|-----------------------|--------------------------|
|-----------------------|--------------------------|
|---------------------5-|-(5)---------(5)---7-8-8--|
|---------------------5-|-(5)---------(5)---7-8-8--|
|-----------------------|--------------------------|


       PM------------|         PM--------------|          PM------------|
  +E   E S S E S S E E E   +E  E S S E  S  S E E E   +E   E S S E S S E E E
|------------------------|-------------------------|-------------------------|
|------------------------|-------------------------|-------------------------|
|------------------------|-------------------------|-------------------------|
|-(2)------------------2-|-(2)-------------------2-|-(2)------------------2--|
|-(2)------------------2-|-(2)-------------------2-|-(2)------------------2--|
|-(0)--0-0-0-0-0-0-0-0-0-|-(0)-0-0-0-0--0--0-0-0-0-|-(0)--0-0-0-0-0-0-0-0-0--|
|
| +H           Q     E E   +H          +E    E E E   +H           Q     E E
|------------------------|-------------------------|-------------------------|
|------------------------|-------------------------|-------------------------|
|------------------------|-------------------------|-------------------------|
|-(8)------------------5-|-(5)---------(5)---7-8-8-|-(8)------------------5--|
|-(8)\-----------------5-|-(5)---------(5)---7-8-8-|-(8)\-----------------5--|
|------------------------|-------------------------|-------------------------|


      PM--------------|          PM------------|         PM--------------|
  +E  E S S E  S  S E E E   +E   E S S E S S E E E   +E  E S S E  S  S E E E
|-------------------------|------------------------|--------------------------|
|-------------------------|------------------------|--------------------------|
|-------------------------|------------------------|--------------------------|
|-(2)-------------------2-|-(2)------------------2-|-(2)-------------------2--|
|-(2)-------------------2-|-(2)------------------2-|-(2)-------------------2--|
|-(0)-0-0-0-0--0--0-0-0-0-|-(0)--0-0-0-0-0-0-0-0-0-|-(0)-0-0-0-0--0--0-0-0-0--|
|
| +H          +E    E E E   +H           Q     E E   +H          +E    E E E
|-------------------------|------------------------|--------------------------|
|-------------------------|------------------------|--------------------------|
|-------------------------|------------------------|--------------------------|
|-(5)---------(5)---7-8-8-|-(8)------------------5-|-(5)---------(5)---7-8----|
|-(5)---------(5)---7-8-8-|-(8)\-----------------5-|-(5)---------(5)---7-8-7--|
|-------------------------|------------------------|-----------------------7--|


       PM------------|         PM------------|
  +E   E S S E S S E E E   +E  E S S E S S E E E
|------------------------|-----------------------|
|------------------------|-----------------------|
|------------------------|-----------------------|
|-(2)------------------2-|-(2)-----------------2-|
|-(2)------------------2-|-(2)-----------------2-|
|-(0)--0-0-0-0-0-0-0-0-0-|-(0)-0-0-0-0-0-0-0-0-0-|
|
| +H           H            W
|------------------------|-----------------------|
|------------------------|-----------------------|
|------------------------|-----------------------|
|------------------------|-----------------------|
|-(7)--------------------|-----------------------|
|-(7)\-------------------|-----------------------|


    E5
        PM------------|         PM------------|
    +E  E S S E S S E E E   +E  E S S E S S E E E
||------------------------|-----------------------|
||o-----------------------|-----------------------|
||------------------------|-----------------------|
||--(2)-----------------2-|-(2)-----------------2-|
||o-(2)-----------------2-|-(2)-----------------2-|
||--(0)-0-0-0-0-0-0-0-0-0-|-(0)-0-0-0-0-0-0-0-0-0-|
|
|           PM----|                 PM----| ~~~~~~~
|    E  E E E E E E E       +E  E E E E E E E
||------------------------|-----------------------|
||o-----------------------|-----------------------|
||------------------------|-----------------------|
||------------------------|-----------------------|
||o-----0h1---0-1---------|-----0-1---0-1---------|
||----------3-----3-0-----|-(0)-----3-----2-3-----|


                               1.
      PM-----------------|         PM------------|
  +E  E S S  E  S  S  E  E E   +E  E S S E S S E E E
|----------------------------|------------------------||
|----------------------------|-----------------------o||
|----------------------------|------------------------||
|-(2)----------------------2-|-(2)-----------------2--||
|-(2)----------------------2-|-(2)-----------------2-o||
|-(0)-0-0-0--0--0--0--0--0-0-|-(0)-0-0-0-0-0-0-0-0-0--||
|
|~~~~~
| +H        +E  Q     E         W
|----------------------------|------------------------||
|----------------------------|-----------------------o||
|----------------------------|------------------------||
|----------------------------|------------------------||
|----------------------------|-----------------------o||
|-(3)-------(3)-3\---(0)-----|------------------------||


  2.
      PM------------|         PM------------|
  +E  E S S E S S E E E   +E  E S S E S S E E E
|-----------------------|-----------------------|
|-----------------------|-----------------------|
|-----------------------|-----------------------|
|-(2)-----------------2-|-(2)-----------------2-|
|-(2)-----------------2-|-(2)-----------------2-|
|-(0)-0-0-0-0-0-0-0-0-0-|-(0)-0-0-0-0-0-0-0-0-0-|
|
|  W                       W
|-----------------------|-----------------------|
|-----------------------|-----------------------|
|-----------------------|-----------------------|
|-----------------------|-----------------------|
|-----------------------|-----------------------|
|-----------------------|-----------------------|


      N.C.        E5      N.C.        E5      N.C.                         E5
      PM--------|             PM----|             PM--| ~    PM    PM----|
  +E  E E E E E E E   +E  E E E E E E E   +E  E E E E E Q    E E E E E E E E
|-------------------|-------------------|------------------|-----------------|
|-------------------|-------------------|------------------|-----------------|
|-------------------|-------------------|------------------|-----------------|
|-(2)-------------2-|-(2)-------------2-|-(2)--------------|---------------2-|
|-(2)-0-1---0-1---2-|-(2)-0h1---0-1---2-|-(2)-0h1---0-1----|---0h1---0-1---2-|
|-(0)-----3-----3-0-|-(0)-----3-----3-0-|-(0)-----3-----3--|-0-----3-----3-0-|
|
|  E  E E E E E E E   +E  E Q   H                 W                W
|-------------------|-------------------|------------------|-----------------|
|-------------------|-------------------|------------------|-----------------|
|-------------------|-------------------|------------------|-----------------|
|-------------------|-------------------|------------------|-----------------|
|-----0h1---0-1-----|-------------------|------------------|-----------------|
|---------3-----3-0-|-(0)---------------|------------------|-----------------|


      N.C.                         E5      N.C.                         E5
          PM--| ~    PM    PM----|             PM--| ~    PM    PM----|
  +E  E E E E E Q    E E E E E E E E   +E  E E E E E Q    E E E E E E E E
|------------------|-----------------|------------------|-----------------|
|------------------|-----------------|------------------|-----------------|
|------------------|-----------------|------------------|-----------------|
|-(2)--------------|---------------2-|-(2)--------------|---------------2-|
|-(2)-0h1---0-1----|---0h1---0-1---2-|-(2)-0h1---0-1----|---0h1---0-1---2-|
|-(0)-----3-----3--|-0-----3-----3-0-|-(0)-----3-----3--|-0-----3-----3-0-|


      N.C.      E5                    N.C.      G5
      PM------|                       PM------|
  +E  E E E E E Q    +W           +E  E E E E E Q
|------------------|------------|------------------||
|------------------|------------|------------------||
|------------------|------------|------------------||
|-(2)-----------2--|-(2)--------|-(2)-----------5--||
|-(2)-0-1---0-1-2--|-(2)--------|-(2)-0-1---0-1-5--||
|-(0)-----3-----0--|-(0)--------|-(0)-----3-----3--||


 Verse
                   N.C.      E5                    N.C.      G5
                   PM------|                       PM------|
  +W           +E  E E E E E Q    +W           +E  E E E E E Q
|------------|------------------|------------|------------------|
|------------|------------------|------------|------------------|
|------------|------------------|------------|------------------|
|-(5)--------|-(5)-----------2--|-(2)--------|-(2)-----------5--|
|-(5)--------|-(5)-0-1---0-1-2--|-(2)--------|-(2)-0-1---0-1-5--|
|-(3)--------|-(3)-----3-----0--|-(0)--------|-(0)-----3-----3--|


                   N.C.      E5                    N.C.
                   PM------|                       PM--------|
  +W           +E  E E E E E Q    +W           +E  E E E E E E a E
|------------|------------------|------------|---------------------|
|------------|------------------|------------|---------------------|
|------------|------------------|------------|---------------------|
|-(5)--------|-(5)-----------2--|-(2)--------|-(2)-----------------|
|-(5)--------|-(5)-0-1---0-1-2--|-(2)--------|-(2)-0-1---0-1---0h1-|
|-(3)--------|-(3)-----3-----0--|-(0)--------|-(0)-----3-----3-----|


                    E5
                            PM------------|
  +E  E E E a E E E E   +E  E S S E S S E E E
|---------------------|-----------------------|
|---------------------|-----------------------|
|---------------------|-----------------------|
|-------------------2-|-(2)-----------------2-|
|-(1)-1-1-1-0h1-0---2-|-(2)-----------------2-|
|-----------------3-0-|-(0)-0-0-0-0-0-0-0-0-0-|


                              N.C.      G5
      PM------------|         PM------|
  +E  E S S E S S E E E   +E  E E E E E Q
|-----------------------|-------------------|
|-----------------------|-------------------|
|-----------------------|-------------------|
|-(2)-----------------2-|-(2)-----------5---|
|-(2)-----------------2-|-(2)-0-1---0-1-5---|
|-(0)-0-0-0-0-0-0-0-0-0-|-(0)-----3-----3---|


                   N.C.      E5                    N.C.      G5
                   PM------|                       PM------|
  +W           +E  E E E E E Q    +W           +E  E E E E E Q
|------------|------------------|------------|------------------|
|------------|------------------|------------|------------------|
|------------|------------------|------------|------------------|
|-(5)--------|-(5)-----------2--|-(2)--------|-(2)-----------5--|
|-(5)--------|-(5)-0-1---0-1-2--|-(2)--------|-(2)-0-1---0-1-5--|
|-(3)--------|-(3)-----3-----0--|-(0)--------|-(0)-----3-----3--|


                   N.C.      E5
                   PM------|
  +W           +E  E E E E E Q    +W
|------------|------------------|------------|
|------------|------------------|------------|
|------------|------------------|------------|
|-(5)--------|-(5)-----------2--|-(2)--------|
|-(5)--------|-(5)-0-1---0-1-2--|-(2)--------|
|-(3)--------|-(3)-----3-----0--|-(0)--------|


      N.C.                                E5
      PM--------|
  +E  E E E E E E a E   +E  E E E a E E E E
|---------------------|----------------------||
|---------------------|----------------------||
|---------------------|----------------------||
|-(2)-----------------|-------------------2--||
|-(2)-0-1---0-1---0h1-|-(1)-1-1-1-0h1-0---2--||
|-(0)-----3-----3-----|-----------------3-0--||


 Chorus
  $
      N.C.        E5      N.C.                         E5      N.C.        E5
          PM----|             PM--| ~    PM    PM----|             PM----|
  +E  E E E E E E E   +E  E E E E E Q    E E E E E E E E   +E  E E E E E E E
|-------------------|------------------|-----------------|-------------------|
|-------------------|------------------|-----------------|-------------------|
|-------------------|------------------|-----------------|-------------------|
|-(2)-------------2-|-(2)--------------|---------------2-|-(2)-------------2-|
|-(2)-0h1---0-1---2-|-(2)-0h1---0-1----|---0h1---0-1---2-|-(2)-0h1---0-1---2-|
|-(0)-----3-----3-0-|-(0)-----3-----3--|-0-----3-----3-0-|-(0)-----3-----3-0-|


      N.C.        E5      N.C.                         E5      N.C.        E5
          PM----|             PM--| ~    PM    PM----|             PM----|
  +E  E E E E E E E   +E  E E E E E Q    E E E E E E E E   +E  E E E E E E E
|-------------------|------------------|-----------------|-------------------|
|-------------------|------------------|-----------------|-------------------|
|-------------------|------------------|-----------------|-------------------|
|-(2)-------------2-|-(2)--------------|---------------2-|-(2)-------------2-|
|-(2)-0h1---0-1---2-|-(2)-0h1---0-1----|---0h1---0-1---2-|-(2)-0h1---0-1---2-|
|-(0)-----3-----3-0-|-(0)-----3-----3--|-0-----3-----3-0-|-(0)-----3-----3-0-|


                                                                 To Coda
      PM------------|         PM------------|         PM------------|
  +E  E S S E S S E E E   +E  E S S E S S E E E   +E  E S S E S S E E E
|-----------------------|-----------------------|------------------------|
|-----------------------|-----------------------|------------------------|
|-----------------------|-----------------------|------------------------|
|-(2)-----------------2-|-(2)-----------------2-|-(2)-----------------2--|
|-(2)-----------------2-|-(2)-----------------2-|-(2)-----------------2--|
|-(0)-0-0-0-0-0-0-0-0-0-|-(0)-0-0-0-0-0-0-0-0-0-|-(0)-0-0-0-0-0-0-0-0-0--|


      N.C.      E5                    N.C.      G5
      PM------|                       PM------|
  +E  E E E E E Q    +W           +E  E E E E E Q
|------------------|------------|------------------||
|------------------|------------|------------------||
|------------------|------------|------------------||
|-(2)-----------2--|-(2)--------|-(2)-----------5--||
|-(2)-0-1---0-1-2--|-(2)--------|-(2)-0-1---0-1-5--||
|-(0)-----3-----0--|-(0)--------|-(0)-----3-----3--||


                   N.C.      E5                    N.C.      G5
                   PM------|                       PM------|
  +W           +E  E E E E E Q    +W           +E  E E E E E Q
|------------|------------------|------------|------------------|
|------------|------------------|------------|------------------|
|------------|------------------|------------|------------------|
|-(5)--------|-(5)-----------2--|-(2)--------|-(2)-----------5--|
|-(5)--------|-(5)-0-1---0-1-2--|-(2)--------|-(2)-0-1---0-1-5--|
|-(3)--------|-(3)-----3-----0--|-(0)--------|-(0)-----3-----3--|


                   N.C.      E5                    N.C.
                   PM------|                       PM--------|
  +W           +E  E E E E E Q    +W           +E  E E E E E E a    E
|------------|------------------|------------|------------------------|
|------------|------------------|------------|------------------------|
|------------|------------------|------------|------------------------|
|-(5)--------|-(5)-----------2--|-(2)--------|-(2)--------------------|
|-(5)--------|-(5)-0-1---0-1-2--|-(2)--------|-(2)-0-1---0-1---0h===1-|
|-(3)--------|-(3)-----3-----0--|-(0)--------|-(0)-----3-----3--------|
|
| Gtr III
|  W            W                  W            H        Q   E E
|------------|------------------|------------|------------------------|
|------------|------------------|------------|------------------------|
|------------|------------------|------------|-----------------7b9====|
|------------|------------------|------------|------------------------|
|------------|------------------|------------|------------------------|
|------------|------------------|------------|------------------------|


                          E5
                                  PM------------------|
   E  E  E  E  a  E E  E  E   +E  E S S E  S   S   E  E E
|---------------------------|-----------------------------|
|---------------------------|-----------------------------|
|---------------------------|-----------------------------|
|-------------------------2-|-(2)-----------------------2-|
|--1--1--1--1--0h=1-0-----2-|-(2)-----------------------2-|
|----------------------3--0-|-(0)-0-0-0-0--0---0---0--0-0-|
|
| +Q    +Q    +Q.     +E      +H          +E  +E  +E  E
|---------------------------|-----------------------------|
|---------------------------|-----------------------------|
|-(7)---(7)---(7)-----(7)---|-(7)---------(7)-(7)r(7)-----|
|---------------------------|-------------------------7---|
|---------------------------|-----------------------------|
|---------------------------|-----------------------------|


                               N.C.        G5
       PM------------|         PM--------|
  +E   E S S E S S E E E   +E  E E E  E  E Q
|------------------------|----------------------|
|------------------------|----------------------|
|------------------------|----------------------|
|-(2)------------------2-|-(2)-------------5----|
|-(2)------------------2-|-(2)-0-1----0--1-5----|
|-(0)--0-0-0-0-0-0-0-0-0-|-(0)-----3-------3----|
|
|                    ~~~~~~~~~~~~~~~~~~~~~~~~~~
| +H..               E     +Q    Q   +Q.     E
|------------------------|----------------------|
|------------------------|----------------------|
|------------------------|----------------------|
|-(7)----------------5---|-(5)---5---(5)--------|
|------------------------|-------------------7--|
|------------------------|----------------------|


                   N.C.          E5                          N.C.      G5
                   PM---------|                              PM------|
  +W           +E  E   E E  E  E  Q       +W            +E   E E E E E Q
|------------|-------------------------|-------------|----------------------|
|------------|-------------------------|-------------|----------------------|
|------------|-------------------------|-------------|----------------------|
|-(5)--------|-(5)----------------2----|--(2)--------|--(2)------------5----|
|-(5)--------|-(5)-0---1----0--1--2----|--(2)--------|--(2)--0-1---0-1-5----|
|-(3)--------|-(3)-------3--------0----|--(0)--------|--(0)------3-----3----|
|
|  ~~~~~~~~~~~~~~~~                  ~~~~~~~~~~~~~~~~~~~~~~~~
| +W           +Q      Q    E  E  E  E    +W            +H..              E
|------------|-------------------------|-------------|----------------------|
|------------|-------/12---------------|-------------|----------------------|
|------------|-------/12---12----------|-------------|-------------------12-|
|------------|----------------14-12-14-|-(14)--------|-(14)-----------------|
|-(7)--------|-(7)---------------------|-------------|----------------------|
|------------|-------------------------|-------------|----------------------|


                     N.C.                     E5
                      PM-------------------|
   +W            +E   E      E   E      E   E  Q
|-------------|-----------------------------------|
|-------------|-----------------------------------|
|-------------|-----------------------------------|
|--(5)--------|--(5)---------------------------2--|
|--(5)--------|--(5)--0------1----------0---1--2--|
|--(3)--------|--(3)-------------3-------------0--|
|
|                                              ~~~~
|                                |----3-----|
|  +W            +H   E     +E   S     +S   S  E
|-------------|-----------------------------------|
|-------------|-----------------------------------|
|-(12)--------|-(12)-14b16r(14)-14b16r(14)p12-----|
|-------------|-------------------------------14--|
|-------------|-----------------------------------|
|-------------|-----------------------------------|


                     N.C.
                     PM--------|
   +W            +E  E E E E E  E  a E
|-------------|------------------------|
|-------------|------------------------|
|-------------|------------------------|
|--(2)--------|--(2)-------------------|
|--(2)--------|--(2)-0-1---0-1-----0h1-|
|--(0)--------|--(0)-----3------3------|
|
|~~~~~~~~~~~~~~~~~~~~~
|  +W            +H.            E  E
|-------------|------------------------|
|-------------|------------------------|
|-------------|------------------------|
|-(14)--------|-(14)p==========12-14---|
|-------------|------------------------|
|-------------|------------------------|


                  D.S. al Coda
                              E5
    W
   +E   E  E     E a  E  E  E   E
|-----------------------------------||
|-----------------------------------||
|-----------------------------------||
|-------------------------------2---||
|--(1)--1--1-----1-0h=1--0------2---||
|---------------------------3---0---||
|
|  +E   E  E  a  E    E  E  E   E
|-----------------------------------||
|-----------------------------------||
|-----------------------------------||
|-(14)-12---------------------------||
|---------14-12h14---13-12-10-(12)\-||
|------------------------------12\--||


  &
      N.C.      E5              G5                  E5
                                                    Gtrs I, II
   W                  W              H..            E
                                                    |
                                                    /

      PM------|                                 PM|
  +E  E E E E E Q    +H..       E   +H      +E  E E E
|------------------|--------------|---------------------||
|------------------|--------------|---------------------||
|------------------|--------------|---------------------||
|-(2)-----------2--|-(2)--------5-|-(5)-----(5)---------||
|-(2)-0-1---0-1-2--|-(2)--------5-|-(5)-----(5)-4-3-----||
|-(0)-----3-----0--|-(0)--------3-|-(3)-----(3)-2-1-----||
|
|  W                  W              W
|------------------|--------------|---------------------||
|------------------|--------------|---------------------||
|------------------|--------------|---------------------||
|------------------|--------------|---------------------||
|------------------|--------------|---------------------||
|------------------|--------------|---------------------||


 Interlude
                                   BbA G E5
  Gtrs I, II
  +E E   E E E E E E   +E  E   E E E E E E   +E  E   E E E E E E
   | |   | | | | | |    |  |   | | | | | |    |  |   | | | | | |
   / x   / x / / / /    /  x   / x o o o /    /  x   / x / / / /

  Gtr III
   E S S E E E E E E   +E  S S E E E E E E   +E  S S E E E E E E
|--------------------|---------------------|---------------------|
|--------------------|---------------------|---------------------|
|--------------------|---------------------|---------------------|
|--------5---5-7-----|---------5---8-7-5---|---------5---5-7-----|
|----5h7---7-----8-7-|-(7)-5h7---7-------7-|-(7)-5h7---7-----8-7-|
|--------------------|---------------------|---------------------|


              BbA G E5                                            F5
  +E  E   E E E E E E     +E  E   E E E E E E   +E  E   E E E E E E
   |  |   | | | | | |      |  |   | | | | | |    |  |   | | | | | |
   /  x   / x o o o /      /  x   / x / / / /    /  x   / x o o o /

  +E  S S E E E E E E     +E  S S E E E E E E   +E  S S E E E E E E
|---------------------||----------------------|---------------------|
|---------------------||o---------------------|---------------------|
|---------------------||----------------------|---------------------|
|---------5---8-7-5---||----------5---8-7-----|---------5---8-7-5---|
|-(7)-5h7---7-------7-||o-(7)-5h7---7-----8-7-|-(7)-5h7---7-------8-|
|---------------------||----------------------|---------------------|


          E5                                            F5
 2/4           4/4
  +E  E E E     +E  E   E E E E E E    E  E   E E E E E E
   |  | | |      |  |   | | | | | |    |  |   | | | | | |
   /  o o /      /  x   / x / / / /    /  x   / x o o o /

  +E  E E E     +E  S S E E E E E E   +E  S S E E E E E E
|------------||---------------------|---------------------|
|-----------o||---------------------|---------------------|
|------------||---------------------|---------------------|
|-----5-7----||---------5---5-7-----|---------5---8-7-5---|
|-(8)-----7-o||-(7)-5h7---7-----8-7-|-(7)-5h7---7-------8-|
|------------||---------------------|---------------------|
|
|               Gtr IV
|  W             E  S S E E E E E E   +E  S S E E E E E E
|------------||---------------------|---------------------|
|-----------o||---------------------|---------------------|
|------------||---------4---4-5-----|---------4---7-5-4---|
|------------||-----4h5---5-----7-5-|-(5)-4h5---5-------7-|
|-----------o||---------------------|---------------------|
|------------||---------------------|---------------------|


          F#        G5          G#                                 E5
                                            2/4      4/4
  +Q.     E +Q.     E   +Q.     E +H         +H       +H..          E
   |      |  |      |    |      |  |          |        |            |
   /      o  /      /    /      o  /          /        /            /

  +E  E E E +E  E E E   +E  E E E +E  E Q    +H       +W
|---------------------|--------------------|--------|-----------------||
|---------------------|--------------------|--------|-----------------||
|---------------------|-------4---------4--|-(4)----|-(4)-------------||
|-----5-7-4-(4)-5-7-5-|-(5)-7---6-(6)-7----|--------|-----------------||
|-(8)-----------------|--------------------|--------|-----------------||
|---------------------|--------------------|--------|-----------------||
|
| +E  E E E +E  E E E   +E  E E E +E  E Q    +H       +W
|---------------------|--------------------|--------|-----------------||
|---------------------|-----------------5--|-(5)----|-(5)-------------||
|-----4-5-------4-5-4-|-(4)-5-7-4-(4)-5----|--------|-----------------||
|-(7)-----7-(7)-------|--------------------|--------|-----------------||
|---------------------|--------------------|--------|-----------------||
|---------------------|--------------------|--------|-----------------||
|
| Gtr V
|  W                     W                    H        H      Q  E  E
|---------------------|--------------------|--------|-----------------||
|---------------------|--------------------|--------|--------------12-||
|---------------------|--------------------|--------|--------------12-||
|---------------------|--------------------|--------|-----------------||
|---------------------|--------------------|--------|-----------------||
|---------------------|--------------------|--------|-----------------||


 Guitar Solo
          N.C.              G5      N.C.           A5 Bb5
   +E     H..                    W
    |
    /

  Gtr V
                            ~~~~~~~~
   +H..                     E   +Q     s S  S S  e  E  Q
|-----------------------------|----------------------------|
|-(12)b13---------------------|-------10-----------10-11---|
|-(12)b14-------------------9-|-(9)--------12p9-12--9-10---|
|-----------------------------|----------------------------|
|-----------------------------|----------------------------|
|-----------------------------|----------------------------|
|
|         Gtrs I, II
|         PM--------------|         PM----------|
|   E     E   S S E S S E E E   +E  E  S S  E    E  E  Q
|-----------------------------|----------------------------|
|-----------------------------|----------------------------|
|-----------------------------|----------------------------|
|---------------------------5-|-(5)-----------------7--8\--|
|---------------------------5-|-(5)-----------------7--8\--|
|---------0---0-0-0-0-0-0-0-3-|-(3)-0--0-0--0----0--5--6\--|


  N.C.                                         G5
   W
   E       +S  S E    E     +S  S E  S     +S  S S
|--------------------------------------------------|
|-10b12r==(10)p8-----10b12r(10)p8---10b12r(10)p8---|
|----------------9----------------9--------------9-|
|--------------------------------------------------|
|--------------------------------------------------|
|--------------------------------------------------|
|
|  PM-------------------------------|
|  S    S   E    S S  E      S  S E  E         E
|--------------------------------------------------|
|--------------------------------------------------|
|--------------------------------------------------|
|----------------------------------------------5---|
|----------------------------------------------5---|
|--0----0---0----0-0--0------0--0-0--0---------3---|


          N.C.           A5Bb5       N.C.                                      G5
                 ~~~~~~~~
   Q.            E  +Q       E   E    S  S  S  S  S  S  S  S  S  S  S  S  S  S  S  S
|-10pb12========10-(10)r--------12-|-15p12-------15p12-15p12-------15p12-15p12-------|
|--------------------------/12-----|-------15p12-------------15p12-------------15p12-|
|----------------------------------|-------------------------------------------------|
|----------------------------------|-------------------------------------------------|
|----------------------------------|-------------------------------------------------|
|----------------------------------|-------------------------------------------------|
|
|         PM-------|                  PM---------------------------------|
| +E      E S S  E   E   E   Q        S  S  E     S  S  E     S  S  E     E     E
|----------------------------------|-------------------------------------------------|
|----------------------------------|-------------------------------------------------|
|----------------------------------|-------------------------------------------------|
|-(5)--------------------7---8\----|--------------------------------------------5----|
|-(5)--------------------7---8\----|--------------------------------------------5----|
|-(3)-----0-0-0--0---0---5---6\----|--0--0--0-----0--0--0-----0--0--0-----0-----3----|


        N.C.              A5Bb5
   Q       Q         Q       E.    S
|-15b17---15b17-----15b17---15b17-15-|
|------------------------------------|
|------------------------------------|
|------------------------------------|
|------------------------------------|
|------------------------------------|
|
|       PM----------|
| +E    E  S    S E  E    E  Q
|------------------------------------|
|------------------------------------|
|------------------------------------|
|-(5)---------------------7--8\------|
|-(5)---------------------7--8\------|
|-(3)---0--0----0-0--0----5--6\------|


  N.C.                        G5
          ~~~        ~~
   Q      E.      S  Q      E  S  S
|-12-----12------15-12-----12-12-12-|
|-----------------------------------|
|-----------------------------------|
|-----------------------------------|
|-----------------------------------|
|-----------------------------------|
|
|  PM----------------------|
|  S S E  S  S E     S S E  E  E
|-----------------------------------|
|-----------------------------------|
|-----------------------------------|
|------------------------------5----|
|------------------------------5----|
|--0-0-0--0--0-0-----0-0-0--0--3----|


         N.C.                      G5
   S   S  S  S  S  S  S  S  Q       E       +E       E   E E  E  E E E  E
|-15p=12-12-12-15p12----12------------------------|--------------------10-|
|--------------------15----15b17---15pb17==(15)r\-|--------8-10-11-8------|
|-------------------------------------------------|-----/9----------------|
|-------------------------------------------------|-----------------------|
|-------------------------------------------------|-----------------------|
|-------------------------------------------------|-----------------------|
|
|         PM---------------------|
| +E      E     E     E     E    E  Q               +W
|-------------------------------------------------|-----------------------|
|-------------------------------------------------|-----------------------|
|-------------------------------------------------|-----------------------|
|-(5)-------------------------------5-------------|-(5)-------------------|
|-(5)-----0-----1-----------0----1--5-------------|-(5)-------------------|
|-(3)-----------------3-------------3-------------|-(3)-------------------|


       N.C.         E5
                    ~
   +E  E  E E  E  E Q     E   Q      +S   S  E..  T  S  S  E
|-(10)-8---------------|-----14b15r=(14)p12-14---12-14p12----|
|--------11-8-10-11-8--|----------------------------------15-|
|----------------------|-------------------------------------|
|----------------------|-------------------------------------|
|----------------------|-------------------------------------|
|----------------------|-------------------------------------|
|
|      PM--------|
|  +E  E  E E  E  E Q    +W
|----------------------|-------------------------------------|
|----------------------|-------------------------------------|
|----------------------|-------------------------------------|
|--(5)--------------2--|-(2)---------------------------------|
|--(5)-0--1----0--1-2--|-(2)---------------------------------|
|--(3)------3-------0--|-(0)---------------------------------|


      N.C.                G5
                                      |---3----|     |---3----|
   E   Q       E  E     E  E     E    E     E  E     E  E     E  S     S  S     S  E     S  S
|-12----------12-------12-------12-|-------12-------12-------12-------12-------12-------12-12---|
|-----15b17------15b17----15b17----|-15b17----15b17----15b17----15b17----15b17----15b17---------|
|----------------------------------|------------------------------------------------------------|
|----------------------------------|------------------------------------------------------------|
|----------------------------------|------------------------------------------------------------|
|----------------------------------|------------------------------------------------------------|
|
|      PM--------------|
| +E   E    E  E  E     E  Q         +W
|----------------------------------|------------------------------------------------------------|
|----------------------------------|------------------------------------------------------------|
|----------------------------------|------------------------------------------------------------|
|-(2)----------------------5-------|-(5)--------------------------------------------------------|
|-(2)--0----1-----0-----1--5-------|-(5)--------------------------------------------------------|
|-(0)----------3-----------3-------|-(3)--------------------------------------------------------|


            N.C.
   |--3---|        |--3--|        |--3--|        |--3--|
   S   S  S  S  S  S  S  S  S  S  S  S  S  S  S  S  S  S    S  S
|-12h=15p12-------12h15p12-------12h15p12-------12h15p12---------|
|-----------15p12----------15p12----------15p12------------15p12-|
|----------------------------------------------------------------|
|----------------------------------------------------------------|
|----------------------------------------------------------------|
|----------------------------------------------------------------|
|
|            PM---------------------------------|
| +E         E     E        E     E        E     E       a  E
|----------------------------------------------------------------|
|----------------------------------------------------------------|
|----------------------------------------------------------------|
|-(5)------------------------------------------------------------|
|-(5)--------0-----1--------------0--------1-------------0h=1----|
|-(3)-----------------------3--------------------3---------------|


                                                  E5              N.C.            E5
                              |--3--|
   S   S  S  S  S  S  S  S    S  S  S  E     E     E        +Q      Q     Q     E E
|-15p=12-14-14-17p15-14-15---19p17p15-19b21-20b22-22b24==|=(22)r\-----------------5---|
|--------------------------------------------------------|------------------------5---|
|--------------------------------------------------------|----------------------------|
|--------------------------------------------------------|----------------------------|
|--------------------------------------------------------|----------------------------|
|--------------------------------------------------------|----------------------------|
|
|                                                                 PM------------|
| +E      E     E     E    a  E        E     E     E        +E    E S S E S S E E E
|--------------------------------------------------------|----------------------------|
|--------------------------------------------------------|----------------------------|
|--------------------------------------------------------|----------------------------|
|--------------------------------------------------2-----|--(2)-------------------2---|
|-(1)-----1-----1-----1----0h=1--------0-----------2-----|--(2)-------------------2---|
|--------------------------------------------3-----0-----|--(0)---0-0-0-0-0-0-0-0-0---|


       N.C.            E5       N.C.            E5       N.C.            E5
  +H           Q     E E   +H           Q     E E   +H           Q     E  E
|-(5)\-----------------7-|-(7)\-----------------8-|-(8)\-----------------12--||
|-(5)\-----------------7-|-(7)\-----------------8-|-(8)\-----------------12--||
|------------------------|------------------------|--------------------------||
|------------------------|------------------------|--------------------------||
|------------------------|------------------------|--------------------------||
|------------------------|------------------------|--------------------------||
|
|      PM------------|          PM------------|          PM------------|
| +E   E S S E S S E E E   +E   E S S E S S E E E   +E   E S S E S S E E  E
|------------------------|------------------------|--------------------------||
|------------------------|------------------------|--------------------------||
|------------------------|------------------------|--------------------------||
|-(2)------------------2-|-(2)------------------2-|-(2)-------------------2--||
|-(2)------------------2-|-(2)------------------2-|-(2)-------------------2--||
|-(0)--0-0-0-0-0-0-0-0-0-|-(0)--0-0-0-0-0-0-0-0-0-|-(0)--0-0-0-0-0-0-0-0--0--||


  E5    N.C.
   +H         H          W                 W                  W
|-(12)\---------------|------------------|-----------------|------------------|
|-(12)\---------------|------------------|-----------------|------------------|
|---------------------|------------------|-----------------|------------------|
|---------------------|------------------|-----------------|------------------|
|---------------------|------------------|-----------------|------------------|
|---------------------|------------------|-----------------|------------------|
|
|   E   E Q   H          W                 W                  W
|---------------------|------------------|-----------------|------------------|
|---------------------|------------------|-----------------|------------------|
|---------------------|------------------|-----------------|------------------|
|---2-----------------|------------------|-----------------|------------------|
|---2-----------------|------------------|-----------------|------------------|
|---0-----------------|------------------|-----------------|------------------|
|
| Gtr VI
|                                     ~                                    ~
|   E   E E E E E E E   +E  E E E E E Q    E E E E E E E E   +E  E E E E E Q
|---------------------|------------------|-----------------|------------------|
|---------------------|------------------|-----------------|------------------|
|-------0h1---0-1---2-|-(2)-0h1---0-1----|---0h1---0-1---2-|-(2)-0h1---0-1----|
|---0-------3-----3-0-|-(0)-----3-----3--|-0-----3-----3-0-|-(0)-----3-----3--|


  N.C.          E5      N.C.
  Gtr I
  PM    PM----|             PM--| ~
  E E E E E E E E   +E  E E E E E Q
|-----------------|------------------|
|-----------------|------------------|
|-----------------|------------------|
|---------------2-|-(2)--------------|
|---0h1---0-1---2-|-(2)-0h1---0-1----|
|-0-----3-----3-0-|-(0)-----3-----3--|


                E5      N.C.                         E5
  Gtrs I, II                           Gtrs I, II, III
  PM    PM----|             PM--| ~    PM    PM----|
  E E E E E E E E   +E  E E E E E Q    E E E E E E E E
|-----------------|------------------|-----------------|
|-----------------|------------------|-----------------|
|-----------------|------------------|-----------------|
|---------------2-|-(2)--------------|---------------2-|
|---0h1---0-1---2-|-(2)-0h1---0-1----|---0h1---0-1---2-|
|-0-----3-----3-0-|-(0)-----3-----3--|-0-----3-----3-0-|


      N.C.                         E5      N.C.        E5
          PM--| ~    PM    PM----|             PM----|
  +E  E E E E E Q    E E E E E E E E   +E  E E E E E E E
|------------------|-----------------|-------------------|
|------------------|-----------------|-------------------|
|------------------|-----------------|-------------------|
|-(2)--------------|---------------2-|-(2)-------------2-|
|-(2)-0h1---0-1----|---0h1---0-1---2-|-(2)-0h1---0-1---2-|
|-(0)-----3-----3--|-0-----3-----3-0-|-(0)-----3-----3-0-|


      N.C.        E5      N.C.                         E5      N.C.        E5
          PM----|             PM--| ~    PM    PM----|             PM----|
  +E  E E E E E E E   +E  E E E E E Q    E E E E E E E E   +E  E E E E E E E
|-------------------|------------------|-----------------|-------------------|
|-------------------|------------------|-----------------|-------------------|
|-------------------|------------------|-----------------|-------------------|
|-(2)-------------2-|-(2)--------------|---------------2-|-(2)-------------2-|
|-(2)-0h1---0-1---2-|-(2)-0h1---0-1----|---0h1---0-1---2-|-(2)-0h1---0-1---2-|
|-(0)-----3-----3-0-|-(0)-----3-----3--|-0-----3-----3-0-|-(0)-----3-----3-0-|


      N.C.            E5      N.C.            E5
      PM------------|         PM------------|
  +E  E S S E S S E E E   +E  E S S E S S E E E
|-----------------------|-----------------------|
|-----------------------|-----------------------|
|-----------------------|-----------------------|
|-(2)-----------------2-|-(2)-----------------2-|
|-(2)-----------------2-|-(2)-----------------2-|
|-(0)-0-0-0-0-0-0-0-0-0-|-(0)-0-0-0-0-0-0-0-0-0-|


      N.C.            E5      N.C.      E5
      PM------------|         PM------|
  +E  E S S E S S E E E   +E  E E E E E Q
|-----------------------|------------------|
|-----------------------|------------------|
|-----------------------|------------------|
|-(2)-----------------2-|-(2)-----------2--|
|-(2)-----------------2-|-(2)-0-1---0-1-2--|
|-(0)-0-0-0-0-0-0-0-0-0-|-(0)-----3-----0--|


                   N.C.      G5                    N.C.E5
                   PM------|
  +W           +E  E E E E E Q    +W           +E  E E E E E Q
|------------|------------------|------------|------------------*|
|------------|------------------|------------|------------------*|
|------------|------------------|------------|------------------*|
|-(2)--------|-(2)-----------5--|-(5)--------|-(5)-----2-2------*|
|-(2)--------|-(2)-0-1---0-1-5--|-(5)--------|-(5)-0-1-2-2------*|
|-(0)--------|-(0)-----3-----3--|-(3)--------|-(3)---0-0-0------*|

Que te parecio? Calificalo con estrellas!!

Rating: 4.6/10 (25 votos)

Este fichero es trabajo propio de su transcriptor y representa su interpretación personal de la canción. El material contenido en esta página es para exclusivo uso privado, por lo que se prohibe su reproducción o retransmisión, así como su uso para fines comerciales.


Deja tus comentarios:

Letras de METALLICA
Letras de canciones | Musica Independiente