Enviado por: ab12e
Agrandar Letra
Reducir Letra
Imprimir

Acordes:
½ tono
| +0 |
½ tono
||
Volver


Mana, Hundido En Un Rincon

F#m          E              D             E
Gtr 2 :
|-----5-4-----|-------------|-------------|-------------|
|---------7---|-----------5-|-5-7---------|-------------|
|-----------6-|-4-----------|-----7-6-----|76-4------4-|
|-6-----------|-------------|-------------|---------7---|
|-------------|-------------|-------------|-------------|
|-------------|-------------|-------------|-------------|
Cello
4-4-----------|-6-----------|-7-----------|-6--------2--|


  F#m          E              D             E
Gtr 2 
|-----5-4-----|-------------|-------------|-------------|----|
|---------7---|-----------5-|-5-----------|-------------|----|
|-----------6-|-4-----------|----------7--|76-4------4-|4/6-|
|4/6----------|-------------|-----7-7-----|---------7---|----|
|-------------|-------------|-------------|-------------|----|
|-------------|-------------|-------------|-------------|----|
Cello
4-4-----------|-6-----------|-7-----------|-6--------2--|


Verso:[0:15]
F#m - E - Bm - E
F#m[1] - E - D - E
F#m - E - Bm - E
F#m[2] - E - D - E

[1] [0:22]
|-------------|-------------|-------------|-------------|----|
|---------5-7-|-7-----------|---------5-7-|-7-5---------|----|
|-------7-----|-------------|-------7-----|--------4-2-4|-/6-|
|-------------|-------------|-------------|-------------|----|
|-------------|-------------|-------------|-------------|----|
|-------------|-------------|-------------|-------------|----|
Cello
4-4-----------|-2-----------|-0-----------|-2-----------|

[2] [0:36]
|----5-5-5-5--|4h5-4-4-4-5-7|-------------|-------------|
|-------------|-------------|5/7--------7-|75-5-53-3-3|
|-------------|-------------|-------------|-------------|
|-------------|-------------|-------------|-------------|
|-------------|-------------|-------------|-------------|
|-------------|-------------|-------------|-------------|
Cello
4-4-----------|-2-----------|-0-----------|-2-----------|


Precoro:[0:43]
  A             E             Bm            E
|-5-------5---|-4------4----|-7------7----|-7-------7---|
|---5-------5-|---5------5--|---7------7--|---5-------5-|
|-----6-------|-----4-------|-----7-------|-----4-------|
|-------------|-------------|-------------|-------------|
|-------------|-------------|-------------|-------------|
|-------------|-------------|-------------|-------------|

  A             E             Bm            E
|-5-------5---|-4------4----|-7------7----|-----------------|
|---5-------5-|---5------5--|---7------7--|--5-5-7-7-5-3|-2-|
|-----6-------|-----4-------|-----7-------|-4-----------|---|
|-------------|-------------|-------------|2------------|---|
|-------------|-------------|-------------|-------------|---|
|-------------|-------------|-------------|-------------|---|

  A             E             Bm            E
|-5-------5---|-4------4----|-7------7----|-7-------7---|
|---5-------5-|---5------5--|---7------7--|---5-------5-|
|-----6-------|-----4-------|-----7-------|-----4-------|
|-------------|-------------|-------------|-------------|
|-------------|-------------|-------------|-------------|
|-------------|-------------|-------------|-------------|
Cello
3-6-----------|-4-----------|-7-----------|-4-----------|

  A             E             Bm            E
|-5-------5---|-4------4----|-7------7----|-7-------7---|
|---5-------5-|---5------5--|---7------7--|---5-------5-|
|-----6-------|-----4-------|-----7-------|-----4-------|
|-------------|-------------|-------------|-------------|
|-------------|-------------|-------------|-------------|
|-------------|-------------|-------------|-------------|
Cello
3-6-----------|-4-----------|-7----9-7-9--|-4-----------|

[1:13]
F#m            E             D             E
|2----4-5-----|-------4-5-7-|-2-----------|-------------|
|2--------7---|-------------|-3---3-2-0---|-------------|
|2----------6-|-4-----------|-2---------2-|-------------|
|4------------|-------------|-0-----------|-------------|
|4------------|-------------|-------------|-------------|
|2------------|-------------|-------------|-------------|

Coro:[1:20]
gtr 3 : acustica
A              E             Bm            E
|-------------|-------------|-------------|-------------|
|-------------|-------------|-------------|-------------|
|-2-----------|-9-----------|-4-----------|-9-9-9--/x--|
|-2-----------|-9-----------|-4-----------|-9-9-9--/x--|
|-0-----------|-7-----------|-2-----------|-7-7-7-------|
|-------------|-0-----------|-------------|-------------|

A              E             F#m           E
|-------------|-------------|-------------|-------------|
|-------------|-------------|-------10----|---------|
|-2-----------|-9-----------|-11-11---11--|---4br-2----2|
|-2-----------|-9-----------|-11--------11|-9-------4-2-|
|-0-----------|-7-----------|-9-----------|-------------|
|-------------|-0-----------|-------------|-------------|

A              E             Bm            E
|-------------|-------------|-------------|-------------|
|-------------|-------------|-------------|-------------|
|-2-----------|-9-----------|-4-----------|-9-9-9--/x--|
|-2-----------|-9-----------|-4-----------|-9-9-9--/x--|
|-0-----------|-7-----------|-2-----------|-7-7-7-------|
|-------------|-0-----------|-------------|-------------|

A              E             F#m           E
|-------------|-------------|-------------|-------------|
|-------------|-------------|-------10----|-------------|
|-2-----------|-9-----------|-11-11---11--|---9---------|
|-2-----------|-9-----------|-11--------11|-9-----------|
|-0-----------|-7-----------|-9-----------|-7-----------|
|-------------|-0-----------|-------------|-------------|



intro otravez [1:49]
  F#m          E              D             E
|-------------|-------------|-------------|-------------|
|-------------|-------------|-------------|-------------|
|-------------|-------------|-------------|-------------|
|-4-----------|-2-----------|-------------|-------------|
|-4-----------|-2-----------|-------------|-------------|
|-2-----------|-0-----------|-------------|-------------|
|
|-----5-4-----|-------------|-------------|-------------|
|---------7---|-----------5-|-5-7---------|-------------|
|-----------6-|-4-----------|-----7-6-----|76-4------4-|
|-6-----------|-------------|-------------|---------7---|
|-------------|-------------|-------------|-------------|
|-------------|-------------|-------------|-------------|
Cello
4-4-----------|-6-----------|-7-----------|-6--------2--|

  F#m          E              D             E
|-----5-4-----|-------------|-------------|-------------|
|---------7---|-----------5-|-5-----------|-------------|
|-----------6-|-4-----------|----------7--|76-4------4-|
|4/6----------|-------------|-----7-7-----|---------7---|
|-------------|-------------|-------------|-------------|
|-------------|-------------|-------------|-------------|
Cello
4-4-----------|-6-----------|-7-----------|-6--------2--|




Verso 2: [2:03]
  F#m          E              Bm            E
|-----5-4-----|-------------|---------2---|-----------0-|
|---------7---|-------------|-------0---3-|-----0-------|
|--2--------6-|-4-----------|-----4-------|---4-----4---|
|-4-----------|-------------|---4---------|-2-----2-----|
|4------------|-------------|-------------|-------------|
|-------------|-------------|-------------|-------------|

  F#m          E              D             E
|-----5-4-----|---------0---|-2-2-4-2-2---|-------0-----|
|---------7---|-------0-----|--0-----0----|----2--------|
|--2--------6-|-4---4-------|-------------|--4----------|
|-4-----------|-------------|-------------|-------------|
|4------------|-------------|-------------|-------------|
|-------------|-------------|-------------|-------------|

  F#m          E              Bm            E
|-----5-4-----|-------0-----|-------2---0-|--------0----|
|---------7---|----0--------|-----3---3---|---0---------|
|-----------6-|-4-----------|---4---------|-4---4-------|
|-6-----------|-------------|-4-----------|-------------|
|-------------|-------------|-------------|-------------|
|-------------|-------------|-------------|-------------|
Gtr 1:
|-----9-7-5-4-|-------------|-------------|-------------|
|-------------|-5-----------|-------------|-------------|
|-------------|-------------|-------------|-------------|
|-------------|-------------|-------------|-------------|
|-------------|-------------|-------------|-------------|
|-------------|-------------|-------------|-------------|

  F#m          E              D             E
|-----5-4-----|---------0---|-2-2-4-2-2---|-----0-------|
|---------7---|-------0-----|--0-----0----|---0----0----|
|--2--------6-|-4---4-------|-------------|--1-1-1---1-2|
|-4-----------|-------------|-------------|-2-----------|
|4------------|-------------|-------------|-------------|
|-------------|-------------|-------------|-------------|
|
|-----9-7-5-4-|-------------|-------------|-------------|
|-------------|-5-----------|-------------|-------------|
|-------------|-------------|-------------|-------------|
|-------------|-------------|-------------|-------------|
|-------------|-------------|-------------|-------------|
|-------------|-------------|-------------|-------------|



Precoro: [2:33]
  A             E             Bm            E
|-5-------5---|-4------4----|-7------7----|-7-------7---|
|---5-------5-|---5------5--|---7------7--|---5-------5-|
|-----6-------|-----4-------|-----7-------|-----4-------|
|-------------|-------------|-------------|-------------|
|-------------|-------------|-------------|-------------|
|-------------|-------------|-------------|-------------|

  A             E             Bm            E
|-5-------5---|-4------4----|-7------7----|-----------------|
|---5-------5-|---5------5--|---7------7--|--5-5-7-7-5-3|-2-|
|-----6-------|-----4-------|-----7-------|-4-----------|---|
|-------------|-------------|-------------|2------------|---|
|-------------|-------------|-------------|-------------|---|
|-------------|-------------|-------------|-------------|---|

  A             E             Bm            E
|-5-------5---|-4------4----|-7------7----|-7-------7---|
|---5-------5-|---5------5--|---7------7--|---5-------5-|
|-----6-------|-----4-------|-----7-------|-----4-------|
|-------------|-------------|-------------|-------------|
|-------------|-------------|-------------|-------------|
|-------------|-------------|-------------|-------------|
|
3-6-----------|-4-----------|-7-----------|-4-----------|

  A             C#7           F#m           D
|-5-------5---|-----4-------|-2-----------|-222-222-----|
|---5-------5-|-------6-----|---2---------|-333-333-----|
|-----6-------|--------4----|-----2-------|-222-222-----|
|-------------|---------6---|-------------|-000-000-----|
|-------------|-------------|-------------|-------------|
|-------------|-------------|-------------|-------------|

[Coro otravez]
[3:02]-[3:30]

Intervalo: [3:31]
  D             E             F#m  C#m      E    AE AE
|-------------|-------------|-5--5-4------|-4-----------|
|-------------|-------------|-7--7-5------|-5-----------|
|-7-----------|-9-----------|-**----------|------2--2---|
|-7-----------|-9-----------|-------------|------22-22--|
|-5-----------|-7-----------|-------------|------02-02--|
|-------------|-------------|-------------|-------0--0--|


  D             E             F#m  C#m      E D
|-------------|-------------|-5--5-4------|-4---4-7-5-4-----------|
|-------------|-------------|-7--7-5------|-5-----------5------/5-|
|-7-----------|-9-----------|-------------|--------------/64-2--6|
|-7-----------|-9-----------|-**----------|-----------------------|
|-5-----------|-7-----------|-------------|-----------------------|
|-------------|-------------|-------------|-----------------------|


Coro 2: [4:00]
  A             E             Bm            E
|-5-----5-----|-4-----4-----|-7-----7-----|-7-----7-----|
|---5-------5-|---5-------5-|---7-------7-|---5-------5-|
|-----6-------|-----4-------|-----7-------|-----4-------|
|-------------|-------------|-------------|-------------|
|-------------|-------------|-------------|-------------|
|-------------|-------------|-------------|-------------|

  A             E             F#m           E
|-5-----5-----|-4-----4-----|-5-----5-----|-7-----7-----|
|---5-------5-|---5-------5-|---5-------5-|---7-----7---|
|-----6-------|-----4-------|-----2-------|-----4-------|
|-------------|-------------|-------------|-------------|
|-------------|-------------|-------------|-------------|
|-------------|-------------|-------------|-------------|



intro otravez: [4:14]
  F#m          E              D             E
|-----5-4-----|-------------|-------------|-------------|
|---------7---|-----------5-|-5-7---------|-------------|
|-----------6-|-4-----------|-----7-6-----|76-4------4-|
|-6-----------|-------------|-------------|---------7---|
|-------------|-------------|-------------|-------------|
|-------------|-------------|-------------|-------------|
Cello
4-4-----------|-6-----------|-7-----------|-6--------2--|

  F#m          E              D             C#
|-----5-4-----|-------------|-------------|-------------|
|---------7---|-------------|-------------|-------------|
|-----------6-|-4------4h5p4|2-----4h5p4|1-----------|
|4/6----------|-------------|-------------|-------------|
|-------------|-------------|-------------|-------------|
|-------------|-------------|-------------|-------------|
Cello
4-4-----------|-6-----------|-7-----------|-6--------2--|

Solo : [4:29]
F#m            E             D             E
|------5------|-------------|----------7br|[7]----------|
|-5brb--------|b5rb-------5b|r-2----------|-------------|
|-------------|-------------|----4br-2----|---------2-4-|
|-------------|-------------|-------------|-------------|
|-------------|-------------|-------------|-------------|
|-------------|-------------|-------------|-------------|

F#m            E             D             C#
|-------------|-------------|---5-7-7-5-7-|-7brp5-7-[7]|
|-------------|-------------|--5----------|-------------|
|-4brp2-------|6---------/|/6-----------|-------------|
|-------4-----|7----------|-------------|-------------|
|-------------|-------------|-------------|-------------|
|-------------|-------------|-------------|-------------|

F#m            E             D             E
      Uhh yeah Uhh yeah,          oh no   cuanta soledad...
|-------------|-------------|-------------|-------------|
|-------------|-------------|-------------|-------------|
|x--x---x--x--|-x-----9---|-------------|-x-------9-|
|x--x---x--x--|-x-----9---|-------------|-x-------9-|
|-------------|-------------|-------------|-------------|
|-------------|-------------|-------------|-------------|

[4:51]
F#m                                    E
|-------14h17-14----14-----------|14-17-14--14-------------|
|-14h17----------17----17b--14-17|--------17--17b-----14h17|
|--------------------------------|-------------------------|
|--------------------------------|-------------------------|
|--------------------------------|-------------------------|
|--------------------------------|-------------------------|

  D
|14h17-14----14-------------14-17-14--14---14---------------------|
|---------17----17b---14-17---------17--17b--17-14-------14-17-14-|
|-------------------------------------------------17-16-----------|
|-----------------------------------------------------------------|
|-----------------------------------------------------------------|
|-----------------------------------------------------------------|

  C#                   F#m           E            D    E
                       Uhh yeah Uhh yeah, oh no cuanta soledad..
|--------------------|-------------|------------|----|-----------|
|--------------------|-------------|------------|----|-----------|
|17-16-14----16b-----|x--x---x--x--|-x----9---|----|-x-----9-|
|--------16----------|x--x---x--x--|-x----9---|----|-x-----9-|
|--------------------|-------------|------------|----|-----------|
|--------------------|-------------|------------|----|-----------|

  F#m
|-------12-10-9----10-9--------|
|-10/12---------12------12-10--|
|------------------------------|
|------------------------------|
|------------------------------|
|------------------------------|

  E                                              D             C#
|-9----------------------------------------|-------------|-----|
|---12-10-9---------9h10p9-----------------|-------------|-----|
|-----------11-9-11--------11-9------------|-------------|-----|
|-------------------------------12-11-9----|-------------|-----|
|---------------------------------------12-|-9-----11h12-|-8---|
|------------------------------------------|-------------|-----|


F#m            E             D             E
oh-oh-oooooooooooooooooooooh________________   oh oh oh oh
|-------------|-------------|-------------|-------------|
|-------------|-------------|-------------|-------------|
|x--x---x--x--|-x-----9---|-------------|-x-------9-|
|x--x---x--x--|-x-----9---|-------------|-x-------9-|
|-------------|-------------|-------------|-------------|
|-------------|-------------|-------------|-------------|

  F#m                    E
|------------------|----------------12---------|
|-12br------12br---12b-|r[12]-12br-12br----12brp10-|
|-11br-----------------|---------------------------|
|----------------------|---------------------------|
|----------------------|---------------------------|
|----------------------|---------------------------|

  D                     C#
|---------------------|-----17------------------|
|---------------------|-------17----------------|
|-12---[12]b----14-16-|-16b------16br--14-16----|
|---------------------|---------------------16--|
|---------------------|-------------------------|
|---------------------|-------------------------|

F#m            E             D             E
oh-oh-oh  oh oh oh oh oh oh oh oh oh ...
|-------------|-------------|-------------|-------------|
|-------------|-------------|-------------|-------------|
|x--x---x--x--|-x-----9---|-------------|-x-------9-|
|x--x---x--x--|-x-----9---|-------------|-x-------9-|
|-------------|-------------|-------------|-------------|
|-------------|-------------|-------------|-------------|

  F#m
|--------------------------------------------|
|-----------------14h15p14-------------------|
|-------14--14h16----------16-14-------16----|
|-14h16--------------------------14/16----16-|
|--------------------------------------------|
|--------------------------------------------|

  E                                     D              C#
|-------------------------------------|----------|------------|
|--------------------------10-------9|7--------|------------|
|14--------------------/11----1413---|---119-7-|-4-7-9------|
|---16-14-----------------------------|----------|--------/9--|
|---------16-15-14-12-----------------|----------|------------|
|-------------------------------------|----------|------------|

  F#m                E
|------------------|------------------------|
|------------------|---------------10----10-|
|------------------|----9-11-11-------11----|
|-6-7-9----------9-|-11---------------------|
|-------9---9-11---|------------------------|
|------------------|------------------------|

  D
|--------------------------------|
|12br-10---12brp10----12brp10----|
|-------11---------11---------11-|
|--------------------------------|
|--------------------------------|
|--------------------------------|

  E                                       F#m
|---------------------------------------|-----14---14----14h17-|
|---10-12brp10----12brp10----12brp10----|17br----17b--17b------|
|-11-----------11---------11---------11-|----------------------|
|---------------------------------------|----------------------|
|---------------------------------------|----------------------|
|---------------------------------------|----------------------|

  E
   T           T
|-19p17p14-h17h19p17p14-h17h19p17p14-20p17p14-20p17p14-20p17p14-20p-|
|-------------------------------------------------------------------|
|-------------------------------------------------------------------|
|-------------------------------------------------------------------|
|-------------------------------------------------------------------|
|-------------------------------------------------------------------|

  C#
|-20p17p14-20p17p14-20p17p14-20p17p14-20p17p14-20p17p14-|
|-------------------------------------------------------|
|-------------------------------------------------------| 
|-------------------------------------------------------| 
|-------------------------------------------------------| 
|-------------------------------------------------------|
Aviso: Este fichero es trabajo propio de su transcriptor y representa su interpretación personal de la canción. El material contenido en esta página es para exclusivo uso privado, por lo que se prohibe su reproducción o retransmisión, así como su uso para fines comerciales.
comentario del colaborador: uuuuuuuuuuuuuuuuufffffffffffffffffffffffff

Califica esta canción


Comentarios en Facebook