Enviado por: m0d3r4tt0
Agrandar Letra
Reducir Letra
Imprimir

Acordes:
½ tono
| +0 |
½ tono
||
Volver

Otras Versiones de El Niño Del Tambor:




Moderatto, El Niño Del Tambor

Del disco "Nos vemos en el invierno"

 El camino que lleva ha Belén,
 baja hasta el valle que la nieve cubrió,
 los pastorcillos quieren ver ha su rey,
 le traen regalos en su humilde zurrón.

 Ro, po, pon, pon,
 ro, po, pon, pon.

  F#
 Ha nacido en un portal de Belén
C#
 el niño Dios.

 F#5
 Yo quisiera poner a tus pies

 algún presente que te agrade señor,
C#5
 más tú ya sabes que soy pobre también,
                        B5
 y no poseo más que un viejo tambor.

 F#5
 Ro, po, pon, pon,
 C#5
 ro, po, pon, pon.

F#5
 En tu honor frente al portal tocare
C#5        F#5
 con mi tambor.

 Auh!

e|----------------------------|-----------------------------------|
B|-----9-11-11-11-12-11-12-11-|---------9-11-11-11-11-12-11-12-11-|
G|-11^------------------------|-11^-11^---------------------------|
D|----------------------------|-----------------------------------|
A|----------------------------|-----------------------------------|
E|----------------------------|-----------------------------------|

e|---------9-9-9-11-9---------|---------9-9-9-11-12-11-9----|
B|-9-11-12------------12-11-9-|-9-11-12------------------12-|
G|----------------------------|-----------------------------|
D|----------------------------|-----------------------------|
A|----------------------------|-----------------------------|
E|----------------------------|-----------------------------|

e|-11-9--------9----------|-----------------------------------|
B|------12-11----12-11-9^-|-11^-11-11-11^-11-11-11^-11-11-11^-|
G|------------------------|-----------------------------------|
D|------------------------|-----------------------------------|
A|------------------------|-----------------------------------|
E|------------------------|-----------------------------------|

 F#5                                  B5 B5 C5 C#5
 Cuando Dios me vió rockeando ante él
        F#5
 me sonrió.

 G5
 El camino que lleva a Belén,

 lo Voy marcando con mi viejo tambor,
D5
 nada mejor hay que te pueda ofrecer,
                        C5
 su ronco acento es un canto de amor.

  G5
 Ro, po, pon, pon,
  D5
 ro, po, pon, pon.

  G5                                  C5  C5 C5 C#5 D5
 Cuando Dios me vio rockeando ante él
         G5
 me sonrió.

 D5
 Oh! oh! oh! oh! oh! oh! oh! oh!
 C5                              G5
 oh! oh! oh! oh! oh! oh! oh! oh! oh! auh!

 [Solo batería]

 F5  C5  G5 G5 G5 G5  G5 F5 G5

e|--------------------2--4----|
B|--------------------2--2----|
G|-----6--4-----7--5--3--2----|
D|-4---6--4--5--7--5--4--2--3-|
A|-4---4--2--5--5--3--4--4--3-|
E|-2---------3--------2-----1-|

  F#5 C#5 B5 G5 D5 C5 F# C# F5


Si quieren alguna rola de Moderatto o de Enrique Bunbury pidanmelas a los correos:

[email protected]
[email protected]
Aviso: Este fichero es trabajo propio de su transcriptor y representa su interpretación personal de la canción. El material contenido en esta página es para exclusivo uso privado, por lo que se prohibe su reproducción o retransmisión, así como su uso para fines comerciales.

Califica esta canción


Comentarios en Facebook