Enviado por: artv1506
Agrandar Letra
Reducir Letra
Imprimir


Otras Versiones de Blanca Navidad:

Villancicos, Blanca Navidad

e||------------------|-----------------|-----------------------|
B||------------------|-----------------|-----------------------|
G||·-----------------|-----------------|--------------0--0-----|
D||·-----2--0--------|-----2--0--------|-----3--2--0-----------|
A||------------3-----|-----------3--0--|--0--------------------|
E||---3-----------3--|--3--------------|-----------------------|

e||-----------------------|-----------------|------------------|
B||-----------------------|-----------------|------------------|
G||--0--0--2--0-----------|-----------------|------------------|
D||--------------3--0--2--|-----2--0--------|-----2--0---------|
A||-----------------------|-----------3-----|-----------3--0---|
E||-----------------------|--3-----------3--|--3---------------|

e||---------------------|-----------------------|--------------|
B||---------------------|-----------------------|--------------|
G||---------------0--0--|--0--0--2--0-----------|--------------|
D||------3--2--0--------|--------------3--0-----|-2-2-2--2-2-2-|
A||---0-----------------|--------------------3--|--------------|
E||---------------------|-----------------------|--------------|

e||-----------------|---------------------|--------------------|
B||-----------------|---------------------|--------------------|
G||-----0-----------|---------------------|-----------------0--|
D||--2--------0--2--|--3-3-3-3-3-3--2--2--|--2-2-0-0--2--0-----|
A||--------3--------|---------------------|--------------------|
E||-----------------|---------------------|--------------------|

e||-----------------|-----------------|------------------------|
B||-----------------|-----------------|------------------------|
G||-----------------|-----0-----------|------------------------|
D||---2-2-2--2-2-2--|--2--------0--2--|--3--3--3--3--3--2--2---|
A||-----------------|--------3--------|------------------------|
E||-----------------|-----------------|------------------------|

e||--------------------------|
B||--------------------------|
G||---------0--0------------·|
D||---2--2--------3--0------·|
A||---------------------3----|
E||--------------------------|



SALU2 A TODOS Y QUE TENGAN FELIZ NAVIDAD!!!!
Aviso: Este fichero es trabajo propio de su transcriptor y representa su interpretación personal de la canción. El material contenido en esta página es para exclusivo uso privado, por lo que se prohibe su reproducción o retransmisión, así como su uso para fines comerciales.
comentario del colaborador: muy buena y uy facil que viva colombia

Califica esta canción


Comentarios en Facebook