Acordes y tablaturas para guitarra

Acordes y Tablaturas
Usuario: Password:

Buscar:
Acordes y Tablaturas >> Letra C >> Acordes de Coldplay >> Lost!
Tablatura de Lost!, Coldplay

Lost!

Coldplay






CHORD CHART

Em7   020030
Em7+  779787
C     032010
C+    335553
G     320033
G+    355433
D     x00232
D+    557775
Bm    799777

when you get to the first D in the chorus, try to play around
with Dsus4(x00233) and Dsus4?(x00235).
Em7 can be replaced with Em.(022000)

CHORUS RIFF:

This riff is played over the C and G at the end of the chorus.
("Oh and I'm just waiting til the shine wears off).

E|----------7---|-----------5------|
B|-------5------|--------3---------|
G|-5--7---------|--4--5------------|
D|--------------|------------------|
A|--------------|------------------|
E|--------------|------------------|


------------------------------------------------------------
INTRO: Em7 - C - G - D     x2

VERSE 1:
Em7              C         G
Just because I'm losing
        D         Em7    C   G 
Doesn't mean I'm lost
        D         Em7     C   G 
Doesn't mean I'll stop
        D            Em7     C   G  D
Doesn't mean I would cross

VERSE 2:

Em7              C         G
Just because I'm hurting
        D         Em7     C   G 
Doesn't mean I'm hurt
        D             Em7      C    G 
Doesn't mean I didn't get what I deserved
   D             Em7     C   G 
No better and no worse

CHORUS:
           D
I just got lost
                   C     G  D
Every river that I tried to cross
                   C     G  D
Every door I ever tried was locked
         C
Ohhh and I'm...
     G                            D
Just waiting 'til the shine wears off

Remember the riff:
E|----------7---|-----------5------|
B|-------5------|--------3---------|
G|-5--7---------|--4--5------------|
D|--------------|------------------|
A|--------------|------------------|
E|--------------|------------------|

VERSE 3:

Em7             C         G
You might be a big fish
     D      Em7     C   G 
In a little pond
        D           Em7
Doesn't mean you've won
        C        G      D      Em7     C      G   
'Cause along may come a bigger one


CHORUS:
               D
And you'll be lost
                     C     G  D
Every river that you tried to cross
                   C     G   D
Every gun you ever held went off
         C
Ohhh and I'm...
     G                            D
Just waiting 'til the firing stops
         C
Ohhh and I'm...
     G                            D
Just waiting 'til the shine wears off

Remember the riff:
E|----------7---|-----------5------|
B|-------5------|--------3---------|
G|-5--7---------|--4--5------------|
D|--------------|------------------|
A|--------------|------------------|
E|--------------|------------------|


SOLO: Em7+ - C+ - D+ - Bm+     x4

E|---------10--12-12-12-------------7---10-10-10-------|
B|--------------------------8-7-7-7------------------7-|
G|-9-9-9-----------------------------------------------|
D|-----------------------------------------------------|    x4
A|-----------------------------------------------------|
E|-----------------------------------------------------|


OUTRO:
         C
Ohhh and I'm...
     G                            D
Just waiting 'til the shine wears off
         C
Ohhh and I'm...
     G                            D
Just waiting 'til the shine wears off

C - G - D (with chorus riff) x2
E|----------7---|-----------5------|
B|-------5------|--------3---------|
G|-5--7---------|--4--5------------|
D|--------------|------------------|
A|--------------|------------------|
E|--------------|------------------|


Em7 - C - G - D      |clearly two times
Em7 - C - G          |and then fading

Que te parecio? Calificalo con estrellas!!

Rating: 6.3/10 (23 votos)

Este fichero es trabajo propio de su transcriptor y representa su interpretación personal de la canción. El material contenido en esta página es para exclusivo uso privado, por lo que se prohibe su reproducción o retransmisión, así como su uso para fines comerciales.


Deja tus comentarios:
Letras de canciones | Musica Independiente