Enviado por:
agus87

Ciro Y Los Persas, Banda De Garage

Imprimir
______________________________________________________________
°°°°°°°°°°°°°°°°°°°°°°°°°°°°°°°°°°°°°°°°°°°°°°°°°°°°°°°°°°°°°°
  "Banda de garage"     
   espejos "2010"
  CIRO Y LOS PERSAS
__________________________________________________
°°°°°°°°°°°°°°°°°°°°°°°°°°°°°°°°°°°°°°°°°°°°°°°°°°

  RIFF 1:                                       RIFF 2:
|--------------------------------------------|----------|
|--------------------------------------------|------0---|
|--2---h4--4---2---4------2---h4--4---2---4--|---2--x---|
|--2---h4--4---2---4------2---h4--4---2---4--|---2--2---|
|--------------------------------------------|------2---|
|--------------------------------------------|----------|

  RIFF 3:
|---------------------|
|----0----------------|
|-2--x------2--h4-----|
|-2--2------2--h4-----|
|----2----------------|
|---------------------|

  RIFF 4:             RIFF 5:
|----------------|----------------|
|----------------|----------------|
|----------------|----------------|
|--4-------7-6-7-|-4------7-8-9---|
|--4-------7-6-7-|-4------7-8-9---|
|----------------|----------------|
_____________________________________________________________
°°°°°°°°°°°°°°°°°°°°°°°°°°°°°°°°°°°°°°°°°°°°°°°°°°°°°°°°°°°°°


(intro): 
(riff 1)x3 riff 2

(riff 1)x3 riff 3


Y que mas para imaginar
entre calles de alquitrán  riff 3
Y que mas fútbol fabricas
y una nena de algodón      riff 3

|riff 1
|pateá la calle
|riff 1
|sin que se desmaye
|riff 1                riff 2 
|esa ruidosa ilusión

|riff 1
|señor dame aliento 
|riff 1
|sangre sudor y tempo 
|riff 1                riff 2
|y te daré rock & roll

riff 4
Sabe a donde va
riff 5
sabe de donde es...

riff 1
ah ah ah ah ah
riff 1
ah ah ah ah ah
riff 1
ah ah ah ah ah
 riff 3


Van a hablar a quererte embalsamar
zarpaditos de ocasión     riff 3
vividores, dillers,
amores y también algún traidor.   riff 3

riff 1                 riff 1
Pero en tu alma vas a creer,
riff 1                 riff 3
aunque la hieran vas a creer,
riff 1       riff 1
lista estás, banda de garage,
riff 1              riff 3
nos espera el mundo afuera.


riff 4
Sabe a donde va
riff 5
sabe de donde es..

riff 1
ah ah ah ah ah
riff 1
ah ah ah ah ah
riff 1
ah ah ah ah ah

G                      A     
No hay una ruta más deseada
G5                         A5
que la que lleva hasta tu piel
E5
ya te escucho gritar,
                    C
nada me da tanto placer.

|-------------------------------------------------------------|
|-0h1p0----------------------0h1p0----------------------------|
|-------2-0h2p0--------------------2-0h2p0--------------------|
|---------------2 0h2p0--------------------2-0h2p0------------|
|-----------------------3-1------------------------3-0h1p1----|
|--------------------------4-3-----------------------------3--|

(riff 1)x3 riff 2

(riff 1)x3 riff 2

 sol

(riff 1)x3 riff 2


riff 4
Sabe a donde va
riff 5
sabe de donde es..

riff 1
ah ah ah ah ah
riff 1
ah ah ah ah ah
riff 1
ah ah ah ah ah
riff 2
G                        A
Cuando las luces ya se apagan
G                         A
y haces temblar todo el país
E
estoy como loco, ves?,
                  C
desesperado por salir.

|-------------------------------------------------------------|
|-0h1p0----------------------0h1p0----------------------------|
|-------2-0h2p0--------------------2-0h2p0--------------------|
|---------------2 0h2p0--------------------2-0h2p0------------|
|-----------------------3-1------------------------3-0h1p1----|
|--------------------------4-3-----------------------------3--|

            ___
riff 1         |
ah ah ah ah ah | 
riff 1         |
ah ah ah ah ah | x4
riff 1         |
ah ah ah ah ah |
riff 2      ___|

riff 1
ah ah ah ah ah

______________________________________________________________
°°°°°°°°°°°°°°°°°°°°°°°°°°°°°°°°°°°°°°°°°°°°°°°°°°°°°°°°°°°°°°
                          ________
                         |  C=DO  |
                         |  D=RE  |
                         |  E=MI  |
                         |  F=FA  |
                         |  G=SOL |
                         |  A=LA  |
                         |  B=SI  |
                         °°°°°°°°°°
_______________________________________________________________
°°°°°°°°°°°°°°°°°°°°°°°°°°°°°°°°°°°°°°°°°°°°°°°°°°°°°°°°°°°°°°°
Aviso: Este fichero es trabajo propio de su transcriptor y representa su interpretación personal de la canción. El material contenido en esta página es para exclusivo uso privado, por lo que se prohibe su reproducción o retransmisión, así como su uso para fines comerciales.

Califica esta canción


Comentarios en Facebook