Enviado por: Tom243
Agrandar Letra
Reducir Letra
Imprimir











Beethoven, Para Elisa

Para elisa /Beethoven

          (&)
E|-----0-------0-------0----------------------------------------|
B|---------4-------4-----0---3----1--------------0------1--0--1-|
G|-----------------------------------2---------2----------------|
D|--2--------------------------------------2--------2-----------|
A|--------------------------------------3-----------------------|
E|--------------------------------------------------------------|

E|---------------------0-----1--0------0------------------------|
B|--1--0----0-1---3-----------------------3--1----3--1--0-------|
G|-------2---------------0--------3-----------------------------|
D|-----------------------------------3----------2---------------|
A|--------------------------------------------------------------|
E|--------------------------------------------------------------|

estos de arriba se repiten

E|-----0------0---0---8--------0---------0------------------------|
B|------------------------4----------4----------------------------|
G|----------------------------------------------------------------|
D|-2-------2------------------------------------------------------|
A|----------------------------------------------------------------|
E|----------------------------------------------------------------|
luego ir al &
Aviso: Este fichero es trabajo propio de su transcriptor y representa su interpretación personal de la canción. El material contenido en esta página es para exclusivo uso privado, por lo que se prohibe su reproducción o retransmisión, así como su uso para fines comerciales.
comentario del colaborador: Para elisa de beethoven.

Califica esta canción


Comentarios en Facebook