Enviado por:
moika

The Beatles, And I Love Her

And i love her
Inicio:
             F#m             E6              F#m
1|-------------------------------------------------------------
2|-------------------------------------------------------------
3|-------------------------------------------------------------
4|-------------------------------------------------------------
5|------7--6--4---------7--6--4---------7--6--4----------------
6|---7---------------7---------------7-------------------------

I give her all my love    That`s all I do
And if you saw my love    You`d love her too

      And I love her


    F#m                          C#m
1|----------9--------------9------------9-----------9----------
2|------10-----10------10-----10-----9-----9-----9-----9-------
3|--11-------------11-------------9-----------9----------------
4|-------------------------------------------------------------
5|-------------------------------------------------------------
6|-------------------------------------------------------------
           She    gives  me       every     thing

    F#m                          C#m
1|----------9--------------9------------9-----------9----------
2|------10-----10------10-----10-----9-----9-----9-----9-------
3|--11-------------11-------------9-----------9----------------
4|-------------------------------------------------------------
5|-------------------------------------------------------------
6|-------------------------------------------------------------
           And     tender        ly

    F#m                          C#m
1|----------9--------------9------------9-----------9----------
2|------10-----10------10-----10-----9-----9-----9-----9-------
3|--11-------------11-------------9-----------9----------------
4|-------------------------------------------------------------
5|-------------------------------------------------------------
6|-------------------------------------------------------------
           The     kiss my       lover     brings

    A                           B7
1|---------9-------------9--------------11---------------------
2|-----10-----10-----10-----10------10------10-----------------
3|--9-------------9-------------11-----------------------------
4|-------------------------------------------------------------
5|-------------------------------------------------------------
6|-------------------------------------------------------------
          She    brings to      me

                    E6
1|----------11------------9-----------9-----------9------------
2|------10------10-----9-----9-----9-----9-----9-----9---------
3|--11--------------9-----------9-----------9-----------9------
4|-------------------------------------------------------------
5|-------------------------------------------------------------
6|-------------------------------------------------------------
       And  I  love    her


A love like ours    could never die
As long as I   have you near me

Bright are the stars that shine   Dark is the sky

I know this love of mine   Will never die

        And I love her


Solo de guitarra:

      
1|--------------------------------------------------------------
2|--------------------------------------------------------------
3|-----------9?7-10---------------9-7--------------------9?7-10-
4|--5--7--8---------------5--7--8----------------5--7--8--------
5|--------------------------------------------------------------
6|--------------------------------------------------------------
    Bb        C7               F                     Gm
1|--------------------------------------------------------------
2|--------------------------------------------------------------
3|--10--7-------------------------------------------------------
4|---------8--?7-5--------------7-------------------------------
5|-----------------------5--3--5--------3-----------------------
6|------------------------------------------5--3----1-3---------

Bright are the stars that shine   Dark is the sky

I know this love of mine   Will never die

        And I love her


Final:
1|----------------------------------------------------------------
2|----------------------------------------------------------------
3|----------------------------------------------------------------
4|----------------------------------------------------------------
5|------8--7--5---------8--7--5---------8--7--5--------8--7--5----
6|---8---------------8---------------8--------------8-------------
Aviso: Este fichero es trabajo propio de su transcriptor y representa su interpretación personal de la canción. El material contenido en esta página es para exclusivo uso privado, por lo que se prohibe su reproducción o retransmisión, así como su uso para fines comerciales.
comentario del colaborador: no olviden tocar con sentimiento XD

Califica esta canción


Comentarios en Facebook