Acordes y tablaturas para guitarra

Acordes y Tablaturas
Usuario: Password:

Buscar:
Acordes y Tablaturas >> Letra M >> Acordes de Mozart >> Marcha Turca
Tablatura de Marcha Turca, Mozart

Marcha Turca

Mozart






Riff 1         Riff 2     Riff 3                        
E------------|-----------|-----------------------------------|--------
B------------|-----------|----------12-10-9-10-12-10-9-10-13-|--------
G----------5-|-7-5---5-9-|-10-9-8-9--------------------------|--------
D--9-7-6-7---|-----9-----|-----------------------------------|--------
A------------|-----------|-----------------------------------|--------
E------------|-----------|-----------------------------------|--------

  Riff 4                             		Riff 5
E------------------------------------------|-------------------------|
B-10-13-12----10-12-10----10-12-10---------|------------10-----------|
G----------12----------12----------12-11-9-|-9-10-12-12----12-10-9---|
D------------------------------------------|-----------------------12|
A------------------------------------------|-------------------------|
E------------------------------------------|-------------------------|

    Riff 6    			Riff 7                                 
E--------------------|--------------------------------------------|---
B----------6---------|-10-12-13-12-10-9-10------------------------|---
G--5-7-9-9---9-7-5---|---------------------9-10-------------------|---
D------------------9-|--------------------------12-10-9-10-9-10-7-|---
A--------------------|--------------------------------------------|---
E--------------------|--------------------------------------------|---

		       Riff 8
E--5-7-9-5-7-9-7-5-------5-7-----5-7-9-5-7-9-7-5-----7-----5-|--------
B------------------9-7-9-----9-5-----------------9-7---9-5---|--------
G------------------------------------------------------------|--------
D------------------------------------------------------------|--------
A------------------------------------------------------------|--------
E------------------------------------------------------------|--------

	Riff 9			     Riff 10
E-9-10-9-7----7---------------|--------------------------------------7
B----------10---10-9-7-10-9-7-|-6-7-9----------------------9-10-9-10--
G-----------------------------|-------10-6-8-10-6-11-10-11------------
D-----------------------------|---------------------------------------
A-----------------------------|---------------------------------------
E-----------------------------|---------------------------------------

		          Riff 11
E-9-8-9-8-|--------------------------------------|--------------------
B---------|--5-7-9-5-----5-----5-7---------------|--------------------
G---------|----------6-8---6-8-----6-5-6-8-6-5-6-|--------------------
D---------|--------------------------------------|--------------------
A---------|--------------------------------------|--------------------
E---------|--------------------------------------|--------------------

		Riff 12	    Riff 13a  Riff 13b	      Riff 14	
E--------------------------|-5-------|-6-6-7-|---------9-12-----------
B-------------------7-9-10-|---9-7-5-|-------|--------------10-14-12--
G-9-7-6-------6-7-9--------|---------|-------|-9-7-6------------------
D-------9-7-9--------------|---------|-------|-------9----------------
A--------------------------|---------|-------|------------------------
E--------------------------|---------|-------|------------------------

   				Riff 15
E------------|-6-10-9-7---------7-5-6-7-9---------------|-------------
B-15-9-12-10-|----------10-9-10-----------7-6-7-9-7-6-7-|-------------
G------------|------------------------------------------|-------------
D------------|------------------------------------------|-------------
A------------|------------------------------------------|-------------
E------------|------------------------------------------|-------------

   				Riff Finale
E-9-9-10-9-7-9-10-9-7-9-10-9-9-9-9-7-12-9-9-10-9-7-9-10-9-7-9-10-9-9--
B---------------------------------------------------------------------
G---------------------------------------------------------------------
D---------------------------------------------------------------------
A---------------------------------------------------------------------
E---------------------------------------------------------------------

E-9-9-7-9----9----9----12----9-------------|--------------------------
B---------10---10---10----10---10-10-10-10-|--------------------------
G------------------------------------------|--------------------------
D------------------------------------------|--------------------------
A------------------------------------------|--------------------------
E------------------------------------------|--------------------------

Que te parecio? Calificalo con estrellas!!

Rating: 7.7/10 (271 votos)

Este fichero es trabajo propio de su transcriptor y representa su interpretación personal de la canción. El material contenido en esta página es para exclusivo uso privado, por lo que se prohibe su reproducción o retransmisión, así como su uso para fines comerciales.


Deja tus comentarios:
Letras de canciones | Musica Independiente