Acordes y tablaturas para guitarra

Acordes y Tablaturas
Usuario: Password:

Buscar:
Acordes y Tablaturas >> Letra E >> Acordes de El Tri >> Las Piedras Rodantes
Tablatura de Las Piedras Rodantes, El Tri

Las Piedras Rodantes

El Tri






Aqui la Tablatura de la cancion y los acordes para que sepan en que momento se cambian las notas.

Solo ocuparan estas 4 y sencillas notas. =)  

Tablatura by: Chad08
Acordes by: Ivanesk 

Acorde   ?G?
1|---3-------------------------------------------- 
2|---0--------------------------------------------
3|---0--------------------------------------------
4|---0--------------------------------------------
5|---2--------------------------------------------
6|---3-------------------------------------------- 

Acorde   ?Em?
1|---0--------------------------------------------
2|---0--------------------------------------------
3|---0--------------------------------------------
4|---2--------------------------------------------
5|---2--------------------------------------------
6|---0--------------------------------------------

Acorde    ?C?
1|---0--------------------------------------------
2|---1--------------------------------------------
3|---0--------------------------------------------
4|---2--------------------------------------------
5|---3--------------------------------------------
6|---0--------------------------------------------

Acorde ?D?
1|---2--------------------------------------------
2|---3--------------------------------------------
3|---2--------------------------------------------
4|---0--------------------------------------------
5|---0--------------------------------------------
6|---0--------------------------------------------



G
Turututturu
Em            C
Turututtururu
     D     Dsus2 D
Tururu...

G
Compartimos el mismo cielo
Em
Compartimos el mismo anhelo
C               
Compartimos el mismo tiempo
      D         D Dsus2 D 
Y el mismo lugar

G
Fuimos parte de la misma historia
Em
Ibamos en la misma prepa
C                  
Yo siempre fui una lacra y tu eras
    D             D Dsus2 D
El cuadro de honor


   G         C           D      C D
Las piedras rodando se encuentran
  G            	C           	D            C D 
Y tu y yo algún día nos habremos de encontrar
     C          D
Mientras tanto cuidate
    C            D
Y que te bendiga Dios
   C          D            G
No hagas nada malo que no hiciera yo

G
Turututturu
Em            C
Turututtururu
     D     Dsus2 D
Tururu...


sigue todo igual

Compartimos el mismo fuego
Competimos en el mismo juego
Compartimos el mismo amor 
Y el mismo dolor

La vida nos jugo una broma
Y el destino atraso al camino
para que cada quien se fuera 
Con su cada cual

Las piedras rodando se encuentran
Y tu y yo algún día nos habremos de encontrar
Mientras tanto cuidate
Y que te bendiga Dios
No hagas nada malo que no hiciera yo


en solo de armónica la guitarra hace esto G Em C D Dsus2 D x2

Que te parecio? Calificalo con estrellas!!

Rating: 6.6/10 (42 votos)

Este fichero es trabajo propio de su transcriptor y representa su interpretación personal de la canción. El material contenido en esta página es para exclusivo uso privado, por lo que se prohibe su reproducción o retransmisión, así como su uso para fines comerciales.


Comentario de chad08
Pues alli esta la rola xDD pus la tablatura la hice yo y los acordes de la cancion pues la hizo Ivanesk ..bueno espero y les haiga servido.
Deja tus comentarios:

Letras de El Tri
Letras de canciones | Musica Independiente