Acordes y tablaturas para guitarra

Acordes y Tablaturas
Usuario: Password:

Buscar:
Acordes y Tablaturas >> Letra P >> Acordes de Panda >> Feliz Cumpleaños
Acordes de Feliz Cumpleaños, Panda

Feliz Cumpleaños

Panda






a.bm.d.fsosm.g.
D 
|-----------------------------------------|
|-----------------------------------------|
|--7-7-6----------------------------------|
|--------9-7------------------------------|
|-------------9-10-9-7-5------------------|
|-----------------------------------------|

F#m           G              Bm
Feliz cumpleaños, no puedo estar ahi
 F#m           G              Bm
En cuerpo pero en espiritu Si 
  F#m        G          Bm
Mi lugar ocupado esta ahora
         F#m                   G
¡No importa, tendrás muchos cumples mas!

D 
|-----------------------------------------|
|-----------------------------------------|
|--7-7-6----------------------------------|
|--------9-7------------------------------|
|-------------9-10-9-7-5------------------|
|-----------------------------------------|

F#m           G              Bm
Hasta ser ancianos te celebrare
F#m           G              Bm
No me ire de tu lado, moriremos despues
F#m           G              Bm
De que juntos lleguemos a la conclusión
F#m                G
Que ya es hora de partir

G       A          F#m                 Bm         A 
Yo no te comprare solo una rosa toda la floreria
G       A          F#m                 Bm         A  G
Yo te recitare aquel poema que no existe todavia
A                   D
Mas no puedo desde acá

D 
|-----------------------------------------|
|-----------------------------------------|
|--7-7-6----------------------------------|
|--------9-7------------------------------|
|-------------9-10-9-7-5------------------|
|-----------------------------------------|


F#m           G              Bm
¡Feliz cumpleaños, aún huele a ti!
F#m           G              Bm
Ese dia de otoño que ahora es gris
F#m                         G                          Bm
Pues no tengo manera para regresarle el color a esta obscuridad

F#m           G              Bm
Feliz cumpleaños, me quito el bombín
F#m           G              Bm
Con todo respeto te deseo a ti
F#m           G              Bm
Nunca nadie podrá festejarte jamás
F#m              G
Como yo lo haria acá

G       A          F#m                 Bm         A 
Yo no te comprare solo una rosa, toda la floreria
G       A          F#m                 Bm         A   G
Yo te recitare aquel poema que no existe todavia
G       A            F#m                       Bm         A 
¡Si pásala bien! Mas no se te olvide es un dia cualquiera
G       A          F#m                 Bm         A  G
Pues yo te celebrare los 365 hasta que muera
A                    D
Mas no puedo  desde acá

G       A        F#m      Bm    A 
G       A        F#m      Bm    A 


G       A        F#m      Bm    A 
Ohhhhh oh oh ohh oh oh oh oh oh oh!
G       A        F#m     Bm      A  G
Ohhhhh oh oh ohh oh oh oh oh oh oh!

A                    D~~  D
¡Yo no puedo desde aca!

Que te parecio? Calificalo con estrellas!!

Rating: 8.7/10 (572 votos)

Este fichero es trabajo propio de su transcriptor y representa su interpretación personal de la canción. El material contenido en esta página es para exclusivo uso privado, por lo que se prohibe su reproducción o retransmisión, así como su uso para fines comerciales.


Comentario de qqqq
a ver ke tal les sale
Deja tus comentarios:

Letras de Panda
Letras de canciones | Musica Independiente