Enviado por:
decrius

Sin Bandera, Imagíname Sin Tí

Imprimir
Intro

             C      G           Am     G         Dm
 e|--------8-10--8------------8-10--8------------------
 b|------8---------/8-------8---------/10-------8-8----
 g|-9-10---------------9-10----------------9-10-----10-
 d|----------------------------------------------------
 a|----------------------------------------------------
 E|----------------------------------------------------

      E    Am
 e|-----------------/17-17v-|
 b|---------------5---------|
 g|-/9-7--------5-----------|
 d|-----------7-------------|
 a|---------7---------------|
 E|-------5-----------------|

====================================================================

 SOLO


 e|-----------14-15-15v-14-12-----------------------
 b|---------0---------------------------------------
 g|-------0-----------------------------------------
 d|-----2---------------------/10-9-7-----9v-7------
 a|---2-------------------------------10-------10-7-
 E|-0-----------------------------------------------


 e|-----------5-8-10-8-7-h8---8---10-12-12-10-8-8--7-8-7-7-7-5-3-/7-|
 b|---------5-----------------10-------------------7----------------|
 g|-------5-------------------9--------------------7----------------|
 d|-----7-----------------------------------------------------------|
 a|---7-------------------------------------------------------------|
 E|-5---------------------------------------------------------------|




         Am             G
Mientras brillen las estrellas,
       F           C
y los rios corran hacia el mar
          Dm
hasta el dia en que tu vuelvas
       E
se que no te dejare de amar
        Am          G
si escucharas mi lamento
        F         C
si me vieras volverias
         Dm
ya he pagado un alto precio
       E
por el mal que yo te hacia
              Dm    G
soy culpable ya lo se
                C       B
y estoy arrepentido  te pido

        E      B          C#m  B
Imaginame sin tí y regresaras a mi
           A          E
sabes que sin tu amor nada
           A         B
que no podre sobrevivir,
       E       B
imaginame sin tí
              C#m   B
cuando mires mis retratos
    Am           E
si algo en ti queda de mi
              A      B          E
regresa por favor imaginame sin ti

         Am         G
Se ha borrado mi sonrisa
       F              C
y la lluvia no ha cesado
      Dm
si supieras como duele
         E
el no tenerte aqui a mi lado
             Dm    G
soy culpable ya lo se
                C   B
y estoy arrepentido

CORO... SOLO

precoro. CORO...
Aviso: Este fichero es trabajo propio de su transcriptor y representa su interpretación personal de la canción. El material contenido en esta página es para exclusivo uso privado, por lo que se prohibe su reproducción o retransmisión, así como su uso para fines comerciales.

Califica esta canción


Comentarios en Facebook