Acordes y tablaturas para guitarra

Acordes y Tablaturas
Usuario: Password:

Buscar:
Acordes y Tablaturas >> Letra D >> Acordes de Demi Lovato >> Catch Me
Tablatura de Catch Me, Demi Lovato

Catch Me

Demi Lovato






e|--------------------------------------------|
B|----9---9---9---9----9---9---9---9----------|
G|----9---9---9---9----9---9---9---9----------|
D|--7---7---7---7-----------------------------|    x2
A|-------------------7---7---7---7------------|
E|--------------------------------------------|
   Before I fall   too fast
   Kiss me quick   make it last

e|-------------------------------------------------------------|
B|----5---5---5---5---4---4---4---4---0---0---0---0---0---0----|
G|----6---6---6---6---4---4---4---4---6---6---6---6---8---8----|
D|----6---6---6---6---4---4---4---4---7---7---7---7---9---9----|
A|--4---4---4---4----------------------------------------------|
E|------------------4---4---4---4---5---5---5---5---7---7---7--|
   So I can see how badly this will hurt me when you say goodbye

e|--------------------------------------------|
B|----9---9---9---9----9---9---9---9----------|
G|----9---9---9---9----9---9---9---9----------|
D|--7---7---7---7-----------------------------|    x2
A|-------------------7---7---7---7------------|
E|--------------------------------------------|
   Keep it sweet   keep it slow
   Let the future pass and don?t let go

e|-------------------------------------------------------|
B|----5---5---5---5---4---4---4---4---0---0---0---0---0--|
G|----6---6---6---6---4---4---4---4---6---6---6---6---8--|
D|----6---6---6---6---4---4---4---4---7---7---7---7---9--|
A|--4---4---4---4----------------------------------------|
E|------------------4---4---4---4---5---5---5---5-----7--|
  But tonight I could fall too soon under this beautiful moonlight

e|-------------------------------------------|
B|-------------------------------------------|
G|-----0---0-----0---0-----9---9-----0---0---|
D|-----6---6-----8---8-----9---9-----8---8---| 
A|-----7---7-----9---9---7---7-------9---9---| 
E|---5---5-----7---7---------------7---7-----|
  But you?re so hypnotizing; you?ve got me laughing while I sing
  
e|-----------------------------------------|
B|-----------------------------------------|
G|-----0---0-----0---0-----9---9---9---9---|
D|-----6---6-----8---8-----9---9---9---9---| 
A|-----7---7-----9---9---7---7---7---7-----| 
E|---5---5-----7---7-----------------------|
You?ve got me smiling in my sleep


e|-------------------------------------------|
B|-------------------------------------------|
G|-----0---0-----0---0-----9---9-----0---0---|
D|-----6---6-----8---8-----9---9-----8---8---| 
A|-----7---7-----9---9---7---7-------9---9---| 
E|---5---5-----7---7---------------7---7-----|
   And I can see this unraveling; your love is where I?m falling

e|-----------------------------------------|
B|-----------------------------------------|
G|-----0---0-----0---0-----9---9---9---9---|
D|-----6---6-----8---8-----9---9---9---9---| 
A|-----7---7-----9---9-----7---7---7---7---| 
E|---5---5-----7---7-----0---0---0-----0---|
              So please don?t catch me


e|--------------------------------------------|
B|----9---9---9---9----9---9---9---9----------|
G|----9---9---9---9----9---9---9---9----------|
D|--7---7---7---7-----------------------------|    x2
A|-------------------7---7---7---7------------|
E|--------------------------------------------|
   See this heart    won?t settle down
   Like a child running scared from a clown

e|-------------------------------------------------------------|
B|----5---5---5---5---4---4---4---4---0---0---0---0---0---0----|
G|----6---6---6---6---4---4---4---4---6---6---6---6---8---8----|
D|----6---6---6---6---4---4---4---4---7---7---7---7---9---9----|
A|--4---4---4---4----------------------------------------------|
E|------------------4---4---4---4---5---5---5---5---7---7---7--|
I?m terrified of what you do my stomach screams just when I look at you


e|--------------------------------------------|
B|----9---9---9---9----9---9---9---9----------|
G|----9---9---9---9----9---9---9---9----------|
D|--7---7---7---7-----------------------------|    x2
A|-------------------7---7---7---7------------|
E|--------------------------------------------|
   Run far away      So I can breathe
   Even though you?ve far from suffocating me

e|-------------------------------------------------------------|
B|----5---5---5---5---4---4---4---4---0---0---0---0---0---0----|
G|----6---6---6---6---4---4---4---4---6---6---6---6---8---8----|
D|----6---6---6---6---4---4---4---4---7---7---7---7---9---9----|
A|--4---4---4---4----------------------------------------------|
E|------------------4---4---4---4---5---5---5---5---7---7---7--|
 I can?t set my hopes too high cause every hello ends with a goodbye

e|-------------------------------------------|
B|-------------------------------------------|
G|-----0---0-----0---0-----9---9-----0---0---|
D|-----6---6-----8---8-----9---9-----8---8---| 
A|-----7---7-----9---9---7---7-------9---9---| 
E|---5---5-----7---7---------------7---7-----|
  But you?re so hypnotizing; you?ve got me laughing while I sing
  
e|-----------------------------------------|
B|-----------------------------------------|
G|-----0---0-----0---0-----9---9---9---9---|
D|-----6---6-----8---8-----9---9---9---9---| 
A|-----7---7-----9---9---7---7---7---7-----| 
E|---5---5-----7---7-----------------------|
     You?ve got me smiling in my sleep

e|-------------------------------------------|
B|-------------------------------------------|
G|-----0---0-----0---0-----9---9-----0---0---|
D|-----6---6-----8---8-----9---9-----8---8---| 
A|-----7---7-----9---9---7---7-------9---9---| 
E|---5---5-----7---7---------------7---7-----|
   And I can see this unraveling; your love is where I?m falling

e|-----------------------------------------|
B|-----------------------------------------|
G|-----0---0-----0---0-----9---9---9---9---|
D|-----6---6-----8---8-----9---9---9---9---| 
A|-----7---7-----9---9-----7---7---7---7---| 
E|---5---5-----7---7-----0---0---0---0-----|
              But please don?t catch me

e|------------------------------------|
B|----5---5---5---5---0---0-----------|
G|----6---6---6---6---8---8-----------|
D|----6---6---6---6---9---9---10--10--|
A|--4---4---4---4-------------9---9---|
E|------------------7---7---8---8-----|
   So now you see, why I?m scared,


e|----------------------------|
B|-----5---5---0---0---0---0--|
G|-----6---6---8---8---6---6--|
D|-----6---6---9---9---7---7--|
A|---4---4--------------------|
E|-----------7---7---5---5----|
  I can?t open up my heart without a care

e|-------------------------------------------------------------|
B|-------------------------------------------------------------|
G|---2---2---2---2---4---4---4---4---5---5---5---5---7~~-------|
D|---4---4---4---4---6---6---6---4---7---7---7---7---9~~-------|
A|---4---4---4---4---6---6---6---6---7---7---7---7---9~~-------|
E|-2---2---2---2---4---4---4---4---5---5---5---5-----7~~-------|
But here I go, it?s what I feel, and for the first time in my life I know it?s real

e|--------x------------x------------x-----------x---|
B|--------x------------x------------x-----------x---|
G|-----0--x---------0--x---------9--x--------0--x---|
D|-----6--x---------8--x---------9--x--------8--x---| 
A|-----7--x---------9--x-------7-7--x--7-----9--x---| 
E|---5----x---5---7----x---7--------x------7----x---|
  But you?re so hypnotizing; you?ve got me laughing while I sing
  
e|-----------x------------x------------------------|
B|-----------x------------x-------0-0-0-0-0-0-0-0--|
G|--------0--x---------0--x-------9-9-9-9-9-9-9-9--|
D|--------6--x---------8--x-------9-9-9-9-9-9-9-9--|
A|--------7--x---------9--x-------7-7-7-7-7-7-7-7--|
E|--7---5----x---5---7----x---7--------------------|
      You?ve got me smiling in my sleep

e|--0000-0000-0000-0000--|
B|--0000-0000-5555-0000--|
G|--6666-8888-6666-8888--|     
D|--7777-9999-6666-9999--|      x3
A|--7777-9999-4444-9999--|
E|--5555-7777------7777--|
 And I can see this unraveling; your love is where I?m falling
 So please don?t catch me
 If this is love please don?t break me 


e|--0~--0~--0~--|
B|--0~--0~--0~--|
G|--6~--8~--9~--|
D|--7~--9~--9~--|
A|--7~--9~--7~--|
E|--5~--7~------|
  I?m giving up so just catch me

Que te parecio? Calificalo con estrellas!!

Rating: 7.7/10 (71 votos)

Este fichero es trabajo propio de su transcriptor y representa su interpretación personal de la canción. El material contenido en esta página es para exclusivo uso privado, por lo que se prohibe su reproducción o retransmisión, así como su uso para fines comerciales.


Deja tus comentarios:
Letras de canciones | Musica Independiente