Enviado por: RheneRuiz
Agrandar Letra
Reducir Letra
Imprimir

Acordes:
½ tono
| +0 |
½ tono
||
Volver





Demi Lovato, Solo

C
You speak to me
                           G
And in your words I hear a melody
                            Am
But in the twilight it\'s so hard to see
                F
What\'s wrong for me 

C
I can\'t resist
                           G
Until you give the truth a little twist
                        Am
As if you\'re gonna get away with this
               F
You\'re not sorry

Em        F            G
I can\'t believe I fell for this

C                  G
I fell through the hole
            Am             F
Down at the bottom of your soul
C                      Bb    F   G
Didn\'t think you could go so low
C                   G
Look at what you\'ve done
              Am                     F
You\'re losing me, here\'s what you\'ve won
C                  Bb   F  G    C
Got me planning to go solo, solo

C
You sing to me
                          G
Too bad you couldn\'t even stay on key
                       Am
If your life is such a mystery
                            F
Why don\'t you just stick to acting

 C
Oh, here we go again
                            G
You couldn\'t find my number until when
                                  Am
You thought that you could get to my best friend
                             F
Without a script your game is lacking

Em        F            G
I can\'t believe I fell for this

C                  G
I fell through the hole
            Am             F
Down at the bottom of your soul
C                      Bb    F  G
Didn\'t think you could go so low
C                   G
Look at what you\'ve done
              Am                     F
You\'re losing me, here\'s what you\'ve won
C                  Bb   F  G    
Got me planning to go solo, solo

Am
 I\'d rather go to a party alone
F                            D
 Than have to go around with you on my arm
Am
 Now that I\'m prone to admit that we\'re done
 F                    G     C G Am F
 Good luck trying to find me

e|-----12----10--------------------------------------------------------------|
B|-----------------12-13h-12-------------------------------------------------|
G|-------------------------------14--14--------------------------------------|
D|------------------------------------------------14--10-----7-10-7---5------|
A|---------------------------------------12--12------------------------------|
E|---------------------------------------------------------------------------|


  C                      Bb    F  G
Oh, \'cause I didn\'t think you could go so low
C                   G
Look at what you\'ve done
              Am                     F
You\'re losing me, here\'s what you\'ve won
C                  Bb   F  G
Got me planning to go solo, solo
C G          Am  F
   Now we\'re done
           C                  Bb   F  G C
\'Cause you got me planning to go solo,  solo


e|---------------------------------------------------------------------------|
B|---------------------------------------------------------------------------|
G|-------5----------------5----------------5---------------5-----------------|
D|----2-----5--2-------------2----------------5--2------------3--2-----------| x2
A|---------------------5--------5-------3------------------------------------|
E|------------------------------------------------------6--------------------|
Aviso: Este fichero es trabajo propio de su transcriptor y representa su interpretación personal de la canción. El material contenido en esta página es para exclusivo uso privado, por lo que se prohibe su reproducción o retransmisión, así como su uso para fines comerciales.

Califica esta canción


Comentarios en Facebook