Acordes y tablaturas para guitarra

Acordes y Tablaturas
Usuario: Password:

Buscar:
Acordes y Tablaturas >> Letra C >> Acordes de Carlos Baute Y Marta Sanchez >> Colgando En Tus Manos
Tablatura de Colgando En Tus Manos, Carlos Baute Y Marta Sanchez

Colgando En Tus Manos

Carlos Baute Y Marta Sanchez

Transcriptor:
julian martin arias
Letras de Canciones
Acordes para Guitarra





e---------|------4--|------6--|------------------|
B------2--|------6--|------7--|-----4-------6----|
G------3--|----6----|----8----|-----4-------6----|
D----4----|---6-----|---8-----|---4---4---6---6--|
A---4-----|--4------|--6------|--2-------4-------|
E--2------|---------|---------|------------------|


e--------------------------4---------------------|
B------2-------------------6---------------------|
G------3-----------------6-----------------------|
D----4------------------6------------------------|
A---4------------------4-------------------------|
E--2---------------------------------------------|
      quiza no fue coincidencia encontrarme contigo

e------6----|--------------------|--------------|
B------7----|-------4-------6----|-----------2--|
G----8------|-------4-------6----|-----------3--|
D---8-------|-----4---4---6---6--|---------4----|
A--6--------|----2-------4-------|--------4-----|
E-----------|--------------------|-------2------|
          tal vez esto lo hizo el destino

e----------------4------------------------6-----|
B----------------6------------------------7-----|
G--------------6------------------------8-------|
D-------------6------------------------8--------|
A------------4------------------------6---------|
E-----------------------------------------------|
   quiero dormirme de nuevo en tu pecho

e-------------------------------------2---------|
B-------------4-----------6-----------2---------|
G-------------4-----------6-----------3---------|
D----------4-----4-----6-----6--------4---------|
A--------2----------4-----------------4---------|
E-------------------------------------2---------|
  y después me despierten tus besos

e-------------4---4------------6---6------------|
B-------------6---6------------7---7------------|
G-------------6--6-------------8--8-------------|
D-------------6----------------8----------------|
A-------------4----------------6----------------|
E-----------------------------------------------|
  tu sexto sentido sueña conmigo

e----------2----------4--------------2----------|
B----------4----------6--------------2----------|
G----------4----------6--------------3----------|
D----------4----------6--------------4----------|
A----------2----------4--------------4----------|
E------------------------------------2----------|
  se que pronto estaremos unidos


e------------------4---4------------6---6-------|
B------------------6---6------------7---7-------|
G------------------6--6-------------8--8--------|
D------------------6----------------8-----------|
A------------------4----------------6-----------|
E-----------------------------------------------|
  esa sonrisa traviesa que vive conmigo

e----------2----------4-------------------------|
B----------4----------6-------------------------|
G----------4----------6-------------------------|
D----------4----------6-------------------------|
A----------2----------4-------------------------|
E-----------------------------------------------|
  se que pronto estaré en tu camino


D#m              A#m                 B
sabes q estoy colgando en tus manos
      F#      C#    D#m
así q no me dejes caer
        A#m     B     F#                   C#
sabes que estoy      colgando en tus manos.


F#       C#                   G#m
te envió poemas de mi puño y letra
             B       C#   F#
te envió canciones de 4.40
             C#                   G#m
te envió las fotos cenando en Marbella
             B      C#       F#
y cuando estuvimos por Venezuela
            C#                   G#m
y así me recuerdes y tengas presente
           B            C#             F#
que mi corazón esta colgando en tus manos
       C#      G#m             B         C#
cuidado, cuidado que mi corazón esta colgando en tus manos.

e---------|------4--|------6--|------------------|
B------2--|------6--|------7--|-----4-------6----|
G------3--|----6----|----8----|-----4-------6----|
D----4----|---6-----|---8-----|---4---4---6---6--|
A---4-----|--4------|--6------|--2-------4-------|
E--2------|---------|---------|------------------|

F#                    C#                  D#m
no perderé la esperanza de hablar contigo,
         B       C#
no me importa que dice el destino.

e---------|
B------2--|
G------3--|
D----4----|
A---4-----|
E--2------|



          C#                  D#m
quiero tener tu fragancia conmigo,
    B        C#           D#m
y beberme de ti lo prohibido.

                 A#m                 B
sabes q estoy colgando en tus manos
      F#      C#    D#m
así q no me dejes caer
        A#m     B     F#                   C#
sabes que estoy      colgando en tus manos.


F#       C#                   G#m
te envió poemas de mi puño y letra
             B       C#   F#
te envió canciones de 4.40
             C#                   G#m
te envió las fotos cenando en Marbella
             B      C#       F#
Y cuando estuvimos por Venezuela
                  C#                   G#m
y así y asi me recuerdes y tengas presente
           B            C#             F#
que mi corazón esta colgando en tus manos  (cuidado)
       C#
cuidado,(mucho cuidado) cuidado
G#m              B
ay! que yo te digo me tienes-



 C#        F#                        C#             G#m
e-------------------------------------------------------|
B--------------------9--9h11--11h12--11--9--9h11--9-----|
G--------------9--10--------------------------------11--|
D--------9--11------------------------------------------|
A--9--11------------------------------------------------|
E-------------------------------------------------------|
-en tus manos        (cuidado, mucho cuidado)


No importa que diga el desti-

   B                 C#                 F#           C#
e---------------9-11--11-9-11-13-11-13-13s14--16-14-12h13-13-14-16-10h11|
B-----11-9--9-11--------------------------------------------------------|
G---------11------------------------------------------------------------|
D-----------------------------------------------------------------------|
A-----------------------------------------------------------------------|
E-----------------------------------------------------------------------|
  -no,                quedate       conmigo                    Lo quiero

  G#m               B               C#                  F#
e--------------------11-9-----9-----------------------------------------|
B------------------------12-11-12-11-9-12-11-9--11-9--------------------|
G---------------------------------------------11----11-10-11------------|
D-----------------------------------------------------------------------|
A-----------------------------------------------------------------------|
E-----------------------------------------------------------------------|
  Todo de ti,  tus labios,      tu cariño,     lo prohibido.

e---------9--9-11-9-11s16-14-13-14-16-11--------------------------------|
B-----9-11-11---------------------------12-11--11s12-11--11-12-11-9-9s11|
G---11----------------------------------------11-------11---------------|
D-----------------------------------------------------------13-11-9-9s11|
A-----------------------------------------------------------------------|
E-----------------------------------------------------------------------|




F#       C#                   G#m
Te envió poemas de mi puño y letra
             B       C#   F#
Te envió canciones de 4.40
             C#                   G#m
Te envió las fotos cenando en Marbella
             B      C#       F#
Y cuando estuvimos por Venezuela
            C#                   G#m
Y así me recuerdes y tengas presente
           B            C#             F#
Que mi corazón esta colgando en tus manos
       C#      G#m             B         C#
Cuidado, cuidado que mi corazón esta colgando en tus manos.


e--------------------------4---------------------|
B------2-------------------6---------------------|
G------3-----------------6-----------------------|
D----4------------------6------------------------|
A---4------------------4-------------------------|
E--2---------------------------------------------|
      que mi corazón esta colgando en tus manos

e------6--------------------------------------2--|
B------7-----------------4-------6------------2--|
G----8-------------------4-------6------------3--|
D---8------------------4---4---6---6----------4--|
A--6------------------2-------4---------------4--|
E------------------------------------------------|
      que mi corazón esta colgando en tus manos.....


----------------------TEMAZO----------------------

Que te parecio? Calificalo con estrellas!!

Rating: 6.7/10 (105 votos)

Este fichero es trabajo propio de su transcriptor y representa su interpretación personal de la canción. El material contenido en esta página es para exclusivo uso privado, por lo que se prohibe su reproducción o retransmisión, así como su uso para fines comerciales.


Deja tus comentarios:
Letras de canciones | Musica Independiente