Acordes y tablaturas para guitarra

Acordes y Tablaturas
Usuario: Password:

Buscar:
Acordes y Tablaturas >> Letra N >> Acordes de No Te Va Gustar >> Una Triste Melodia
Tablatura de Una Triste Melodia, No Te Va Gustar

Una Triste Melodia

No Te Va Gustar






p: saltar o pisar la cuerda.

[VERSO] (arpegiado)

Am      C          G             Dm
No me siento mal, no tengo energía
Am        C         Em
como llegué hasta acá?
Am       C         G             Dm
no presiento más, no tengo armonía
Am     C            Em
no percibo si no estás

   Am    C     G     Dm      Am    C     Em
e|---0-----0-----3-----1p0-----0-----0-----0--
B|----1-----1-----3-------3-----1-----1-----0-
G|-----2-----0-----0--2----------2-----0--0---
D|--2-----2----------0--------2-----2---------
A|-0-----3------2------------0-----3----------
E|-------------3-------------------------0----

   Am    C     G     Dm       Am    C     Em
e|---0-----0-----3-----1p0------0-----0-----|
B|----1-----1-----3-------3------1-----1--0-|
G|-----2-----0-----0--2-----------2-----0-0-|
D|--2-----2----------0---------2-----2----2-|
A|-0-----3------2-------------0-----3-----2-|
E|-------------3--------------------------0-|

[INTERMEDIO] Am-C-G-Dm Am-C-Em

[con la electrica]
e|-5---3----7--5-----7--7--|
B|-5---3---6---5----8----8-|
G|-5---4--7----5---9--9----|
D|-7---5-------7-----------|
A|-------------------------|
E|-------------------------|

[VERSO] (rasgueado)

Am     (C)           G          Dm
No comprendo que me falta todavía
Am    (C)           Em
no se si pueda esperar
Am   (C)            G          Dm
solo me queda una triste melodía
Am   (C)           Em
y no la quiero cantar

[ESTRIBILLO]

Dm        F              C           G
No hay dolor que duela mas que el dolor del alma
Dm      Am         Em
no se aleja así nomas
Dm        F         C        G
cosas lo hacen aliviar pero no lo calman
Dm        F         E
a quien querés engañar?

e|-----------|
B|-----------|
G|-1--2~/4-4-|
D|--2--------|
A|-----------|
E|-----------|

[SOLO] Am-C-G-Dm Am-C-Em x2

   Am     C   G       Dm      Am          C    Em
e|------------------------------------------------
B|-----------3--------3~---------------------3/5~-
G|-2~-2-4-5~--4-2-0~------5-4-5-4-2~--2-4-5~------
D|------------------------------------------------
A|------------------------------------------------
E|------------------------------------------------

               Am     C   G       Dm      Am          C    Em
e|------------------------------------------------------------
B|-----------------------3--------3~---------------------3/5~-
G|-0-2-4-0-5-4-2~-2-4-5~--4-2-0~------5-4-5-4-2~--2-4-5~------
D|------------------------------------------------------------
A|------------------------------------------------------------
E|------------------------------------------------------------

               Am
e|-------------5-|
B|-------------5-|
G|-0-2-4-0-5-4-5-|
D|-------------7-|
A|---------------|
E|---------------|

[VERSO]

Y así son las cosas, así es esta vida
no me quiero conformar
vos tendrás tu forma yo tengo la mia
solo aprendo a lastimar

Y así no es, así no es
así no es, así no es
así no es, así no es
así no es, así no es

[ESTRIBILLO]

No hay dolor que duela mas que el dolor del alma
no se aleja así nomas
cosas lo hacen aliviar pero no lo calman
a quien querés engañar?

[VERSO] (primero rasgueo, luego arpegio)

No comprendo que me falta todavía
no se si pueda esperar
solo me queda esta triste melodía
y no la puedo cantar

   Am    C     G     Dm       Am    C     Em
e|---0-----0-----3--------------0-----0---|
B|----1-----1-----3----6p5-3-----1--------|
G|-----2-----0-----0--------------2-------|
D|--2-----2-----------7--------2-----2----|
A|-0-----3------2----5--------0-----3-----|
E|-------------3------------------------0-|
 al final se puede hacer un rasguido despacio en Em... jeje saludos!!

Que te parecio? Calificalo con estrellas!!

Rating: 8.2/10 (52 votos)

Este fichero es trabajo propio de su transcriptor y representa su interpretación personal de la canción. El material contenido en esta página es para exclusivo uso privado, por lo que se prohibe su reproducción o retransmisión, así como su uso para fines comerciales.


Deja tus comentarios:

Letras de No Te Va Gustar
Letras de canciones | Musica Independiente