Enviado por:
Drakester

The Beatles, Day Tripper

Primer Riff
E|------------------------------||Esta parte es la de ?Got a good
B|------------------------------||reason??
G|------------------------------||
D|-------------2-0---4----0-2---||
A|----------2------2----2-------||
E1--0--3-4----------------------||
Segundo Riff
e|--------------------------------||
B|--------------------------------||? Y esta es la parte donde s
G|------------2-0----4----0-2-----||repite pero con otro tono,
D|----------2------2----2-------||después repites el 1º y empieza
A|--0--3-4------------------------||el coro.
E|--------------------------------||
Coro y Coda
e|----------------------------------------------||
B|----------------------2-----------------------||En esta va
G|-4-----------4--2-----------2--4--------------||?She was A 
D|-4--0--1--4--------4-----4--------------------||Day Tripper?
A|-2--------------------------------------------||
E|----------------------------------------------||

e|--------------------------5b------------||
B|--------3------3---5h-7--------7---5----||
G|-4---4-----4----------------------------||
D|----------------------------------------||
A|----------------------------------------||
E|----------------------------------------||

E|-----------10-------10---12b14b12---10---------------||
B|-12~--12~-------12-----------------------12----------||
G|-----------------------------------------------------||
D|-----------------------------------------------------||
A|-----------------------------------------------------||
E|-----------------------------------------------------||

E|------------------------------||
B|------------------------------||
G|------------------------------||
D|--------------2-0----4----0-2-||
A|-----------2-------2----2-----||
E|--0--3h-4---------------------||

E|-----------------------------||
B|-----------------------------||
G|-------------2-0-----4----0-2||
D|----------2-------2-----2----||
A|-0--3h-4---------------------||
E|-----------------------------||

De ahí solo repites el primer Riff para terminarla
El Coda incluye el solo y  los intermedios.
Repásala por que no te saldrá de un día a otro
Aviso: Este fichero es trabajo propio de su transcriptor y representa su interpretación personal de la canción. El material contenido en esta página es para exclusivo uso privado, por lo que se prohibe su reproducción o retransmisión, así como su uso para fines comerciales.
comentario del colaborador: Esta va para toda la Comunidad de los Beatles.

Califica esta canción


Comentarios en Facebook