Acordes y tablaturas para guitarra

Acordes y Tablaturas
Usuario: Password:

Buscar:
Acordes y Tablaturas >> Letra N >> Acordes de No Te Va Gustar >> Cero A La Izquierda
Tablatura de Cero A La Izquierda, No Te Va Gustar

Cero A La Izquierda

No Te Va Gustar






Intro
e|--------------------------------|
B|--------------------------------|
G|--------------------------------|
D|--------------------------------|
A|-------2-----------2/4-2--------|
E|-0-5-4---5-4-2-4-5-------5-4-0--|

Riff 1
e|--------------------------------------|
B|--------------------------------------|
G|-----1--------------------------------|
D|-2-4-----2-4-2-1-1-2---1-2-2/6-4-2-1--|
A|-------2-------------4----------------|
E|--------------------------------------|

C#m                    B
Todos debemos un día mirar para adentro
C#m                   B
Para ver, hay que mirar,
C#m                  B
Llevo mas de dos intentos
A                            B
Y no me puedo curar, no me puedo curar.

C#m              B
Para salir, no hay que golpear
C#m                            B
Si nunca fui bien recibido, no sé qué hago acá.
C#m                 B
Hoy me despido de todo
          A
Todo lo que me hizo mal
          B
Todo lo que me hizo mal.

E                                  B
Yo quiero estar a la izquierda del cero
F#m          C#m           B
No me analices, no voy a cambiar
E                                        B
Yo sé que no siempre gana el que pega primero
F#m        C#m          B
Pero no sirve dejarse pegar.

Solo
C#m / B / C#m / B
e|-----12----------------------------------------------------------|
B|-7v9----7/9-7p9-7-4/5-------------5/4-5/4------------------------|
G|------------------5/6-4-------------------4----------------------|
D|------------------------6-4/2-4/6-----------4-----2/4------------|
A|----------------------------------------------6-6----4-----------|
E|-----------------------------------------------------------------|

C#m                      B
Que frágil es mi mundo de nuevo
C#m                      B
Esa es la base de mi soledad
C#m                       B
Que fácil es señalarme con el dedo
             A                 B
Y yo sin poderte mirar, sin poderte mirar.

E                                  B
Yo quiero estar a la izquierda del cero
F#m          C#m           B
No me analices, no voy a cambiar
E                                        B
Yo sé que no siempre gana el que pega primero
F#m        C#m          B
Tampoco no sirve dejarse pegar.

E                                  B
Yo quiero estar a la izquierda del cero
F#m          C#m           B
No me analices, no voy a cambiar
E                                        B
Yo sé que no siempre gana el que pega primero
F#m        C#m          B
Tampoco no sirve dejarse pegar.

Riff 1 / Vientos
e|------------------------------------------------|
B|---------5-4-5-4-2-5-4-2-5-5-4-4----------------|
G|-4-4-1-4----------------------------------------|
D|------------------------------------------------|
A|------------------------------------------------|
E|------------------------------------------------|

E / B / F#m / C#m / B x 3 E

Que te parecio? Calificalo con estrellas!!

Rating: 8.2/10 (346 votos)

Este fichero es trabajo propio de su transcriptor y representa su interpretación personal de la canción. El material contenido en esta página es para exclusivo uso privado, por lo que se prohibe su reproducción o retransmisión, así como su uso para fines comerciales.


Deja tus comentarios:

Letras de No Te Va Gustar
Letras de canciones | Musica Independiente