Acordes y tablaturas para guitarra

Acordes y Tablaturas
Usuario: Password:

Buscar:
Acordes y Tablaturas >> Letra E >> Acordes de Enjambre >> Mania Cardiaca
Tablatura de Mania Cardiaca, Enjambre

Mania Cardiaca

Enjambre






Intro:
      E         D#m       C#m       B
e|----7----|----6----|----4----|----2----|
B|----9----|----7----|----5----|----4----|
G|----9----|----8----|----6----|----4----|
D|---------|---------|---------|---------|
A|---------|---------|---------|---------|
E|---------|---------|---------|---------|


Aqui empieza el verso:
  E              D#m      C#m          B
e|7-------|------6--|-----4------|-----2|
B|9-------|------7--|-----5------|-----4|
G|9-------|------8--|-----6------|-----4|
 Tu quien en el
      lumbral de años El corazón
                    perdiste entre extraños


   E                D#m       C#m     B
e|-7--------|-------6---|-----4-----|-2--|
B|-9--------|-------7---|-----5-----|-4--|
G|-9--------|-------8---|-----6-----|-4--|
  Tu quien en el
       festejo transitas Y Excitas
                             a tus visitas


  E                   D#m
e|----7---------7---------6---------6----|
B|--9---9-----9--?9-----7---7-----7---7--|
G|9-------9-9-------9-8-------8-8-------8|
 Tu quien no llora   la-----gri----mas

  C#m                 B
e|----4---------4---------2---------2----|
B|--5---5-----5--?5-----4---4-----4---4--|
G|6-------6-6-------6-4-------4-4-------4|
 Si  no   inocentes   aa--------nimas

  E                   D#m
e|----7---------7---------6---------6----|
B|--9---9-----9--?9-----7---7-----7---7--|
G|9-------9-9-------9-8-------6-8-------8|
         Que lloran
              por cortejo


  C#m                   B
e|----4---------4--------------------------------------|
B|--5---5-----5--?5------------------------------------|
G|6-------6-6-------6---4-4-4-4-4-4-4-444-4-4-4-4-4-4-4|
D|----------------------4-4-4-4-4-4-4-444-4-4-4-4-4-4-4|
A|----------------------2-2-2-2-2-2-2-222-2-2-2-2-2-2-2|
Hay
   sangre derramada
               en azulejo



G#m                       C#m
El corazón te vi ya no me engañas
  F#                             B
Dices que lo perdiste y no lo extrañas
     E               A
Cambiaste tu deber por mañas
    F#                        B
Tus intenciones son de mala calaña


G#m                    C#m
El corazón te vi ya no me engañas
 F#                    B
Bisturí revelo tus entrañas
     E                          A
Y ahí en lo profundo de tu organismo
      D#m
Lo escondes

           E        D#m      C#m      B
e|---------7---|----6---|----4---|----2|
B|---------9---|----7---|----5---|----4|
G|---------9---|----8---|----6---|----4|
con tal cinismo


    E             D#m     C#m           B
e|--7--------|----6--|----4------|------2|
B|--9--------|----7--|----5------|------4|
G|--9--------|----8--|----6------|------4|
   Tú quien mi
       corazón curaste       Luego devoraste


    E            D#m     C#m              B
e|--7---------|--6---|---4-----|----------2|
B|--9---------|--7---|---5-----|----------4|
G|--9---------|--8---|---6-----|----------4|
   Yo con los
       ojos sombríos        Y un torso vacío


  E                   D#m
e|----7---------7---------6---------6----|
B|--9---9-----9--?9-----7---7-----7---7--|
G|9-------9-9-------9-8-------8-8-------8|
Quiero que encuentres
                  un pal-----pitar

  C#m                 B
e|----4---------4---------2---------2----|
B|--5---5-----5--?5-----4---4-----4---4--|
G|6-------6-6-------6-4-------4-4-------4|
 Sincronices con la  vida

  E                   D#m
e|----7---------7---------6---------6----|
B|--9---9-----9--?9-----7---7-----7---7--|
G|9-------9-9-------9-8-------8-8-------8|
        No quieres
             mi ayuda
                  me alejo


  C#m                  B
e|----4---------4-------------------------------------|
B|--5---5-----5--?5-----------------------------------|
G|6-------6-6-------6--4-4-4-4-4-4-4-444-4-4-4-4-4-4-4|
D|---------------------4-4-4-4-4-4-4-444-4-4-4-4-4-4-4|
A|---------------------2-2-2-2-2-2-2-222-2-2-2-2-2-2-2|
Dejando La sangre en
              el azulejo


G#m                       C#m
El corazón te vi ya no me engañas
  F#                             B
Dices que lo perdiste y no lo extrañas
     E               A
Cambiaste tu deber por mañas
    F#                        B
Tus intenciones son de mala calaña


G#m                    C#m
El corazón te vi ya no me engañas
 F#                    B
Bisturí revelo tus entrañas
     E                          A
Y ahí en lo profundo de tu organismo
      F#               B     G#m-C#m-F#-B-E-A-D#m
Lo escondes con tal sinismooooooo...


Entra la distorsión:
E-D#m-C#m-B (x3)

Esta es la salida
E-D#m-Em-B

Que te parecio? Calificalo con estrellas!!

Rating: 6.4/10 (57 votos)

Este fichero es trabajo propio de su transcriptor y representa su interpretación personal de la canción. El material contenido en esta página es para exclusivo uso privado, por lo que se prohibe su reproducción o retransmisión, así como su uso para fines comerciales.


Comentario de decrius
http://lacuerda.net/tabs/e/enjambre/mania_cardiaca-3.shtml enlace directo de la pagina extraida disfruten la ^^
Deja tus comentarios:
Letras de canciones | Musica Independiente