Enviado por: gale1997
Agrandar Letra
Reducir Letra
Imprimir






Cartel De Santa, Bombos Y Tarolas

e [----1--------1--------1-------------1------]
b [-------------------------------------------]
g [-------------------------------------------]
d [-------------------------------------------]
a [--3------3--------3---------3--------------]
E [-------------------------------------------]

e [------1--------1----------------9-0-9-0-9-0]
b [-------------------------------------------]
g [-------------------------------------------]
d [-------------------------------------------]
a [-3---------3--------3-2-0------------------]
E [-------------------------------------------]
Aviso: Este fichero es trabajo propio de su transcriptor y representa su interpretación personal de la canción. El material contenido en esta página es para exclusivo uso privado, por lo que se prohibe su reproducción o retransmisión, así como su uso para fines comerciales.
comentario del colaborador: sobres ai esta locos

Califica esta canción


Comentarios en Facebook