Acordes y tablaturas para guitarra

Acordes y Tablaturas
Usuario: Password:

Buscar:
Acordes y Tablaturas >> Letra P >> Acordes de Poyo Segovia >> No Digas Nada
Acordes de No Digas Nada, Poyo Segovia

No Digas Nada

Poyo Segovia






KE ONDA ESTA ROLA ESTA EN 2 Y 3 POOSICIONES EL 8VO ES EL NUMERO DE TRASTE SEGUN EL ACORDE OK. 
      (C)
e|-x-|---|---|
B|-x-|---|---|
G|---|-x-|---|
D|---|---|-x-|
A|---|---|-x-|
E|-x-|---|---|
  8vo
      (Fm)
e|-x-|---|---|
B|---|-x-|---|
G|---|---|-x-|
D|---|---|-x-|
A|-x-|---|---|
E|---|---|---|
  8vo
      (Dm)
e|-x-|---|---|
B|---|-x-|---|
G|---|---|-x-|
D|---|---|-x-|
A|-x-|---|---|
E|---|---|---|
  5to
      (G7)
e|-x-|---|---|
B|-x-|---|---|
G|---|-x-|---|
D|-x-|---|---|
A|---|---|-x-|
E|-x-|---|---|
  3ro
       (A) 
e|-x-|---|---|
B|-x-|---|---|
G|---|-x-|---|
D|---|---|-x-|
A|---|---|-x-|
E|-x-|---|---|
  5to

Intro: (C) (Fm)  x2

(C)                                    (Fm)
Quiero mirar en tus ojos lo que tu miras en los míos,
(C)                                     (Fm)              (Dm)
sobrevolar el mundo de tu cuerpo y quedarme contigo.

                 (G7)     (Dm)
Amanecer junto a ti...
               (G7)
Y dedicarme la vida entera a ti...


Riff: [Segunda Guitarra]

e-12-------12-12-------12-12-------12-12-------12-
B----13----------13----------13----------13-------
G-------12----------12----------12----------12----

e-13-------13-13-------13-15----15-13----13-
B----13----------13----------13-------13----
G-------13----------13----------------------

e-12-------12-12-------12-12-------12-12-------12-
B----13----------13----------13----------13-------
G-------12----------12----------12----------12----

e-13-------13-13-------13-15----15-13----13-
B----13----------13----------13-------13-13-
G-------13----------13-------------------13-

e--------------------------------------------------------------------------
B----------10----------------10-----------------12-------13-------12-------
G-------10----10----------10----10-----------10----10-------10-------10----
D----12----------12----12----------12-----12----------12-------12-------12-
A-12-----------------------------------10----------------------------------
E-------------------10-----------------------------------------------------
 [(Dm)]                                 [(G7)]
e------------------------------------------------------------10~-
B-------------10----------------10-----------------12--------12~-
G----------10----10----------10----10-----------10----10-----10~-
D-------12----------12----12----------12-----12----------12--12~-
A-12-12-----------------------------------10-----------------10~-
E----10----------------10----------------------------------------
    [(Dm)]                                 [(G7)]


Y si pudiera explicarte lo que tu me das al mirarte
Eso que siento y que sigo sintiendo desde que te conocí

No muevas ni un dedo
es mi turno de hacerte sentir?

Coro:

           (C)
No digas cuanto yo quiero pagar
            (A) 
lo que me cueste tenerte q amar
         (Dm)
no limitare control no tendré
          (G7)
tu serás amada solo siéntate.
            (C)
Hoy por lo pronto despreocúpate
                (A) 
que todo lo que haga por ti lo haré bien
           (Dm)
tu recuéstate todo déjame
            (G7)
es lo que mereces solo por ser mujer...

Intermedio: (C) (Fm)  x2

Creo que ya haz sufrido más de lo normal

y no es justo
como ser humano la vida no debes cargar
tu sola, déjame ayudar
que para eso llegue
en mis brazos aun queda lugar

Coro:


Que te parecio? Calificalo con estrellas!!

Rating: 5.7/10 (11 votos)

Este fichero es trabajo propio de su transcriptor y representa su interpretación personal de la canción. El material contenido en esta página es para exclusivo uso privado, por lo que se prohibe su reproducción o retransmisión, así como su uso para fines comerciales.


Comentario de qqqq
PARA UMMMMMMMM J..Y.G...E
Deja tus comentarios:
Letras de canciones | Musica Independiente