Acordes y tablaturas para guitarra

Acordes y Tablaturas
Usuario: Password:

Buscar:
Acordes y Tablaturas >> Letra M >> Acordes de My Chemical Romance >> Na Na Na
Tablatura de Na Na Na, My Chemical Romance

Na Na Na

My Chemical Romance






INTRO!

e|-----------------|-----------------|-----------------|-----------------|
B|-----------------|-----------------|-----------------|-----------------|
G|-----------------|-----------4-----|-----------------|-----------------|
D|-6---6-4-6---6-4-|-6---6-4-6---6-4-|-----------------|-----------4-----|
A|-----------------|-----------------|-6---6-4-6---6-4-|-6---6-4-6---6-5-|
E|-----------------|-----------------|-----------------|-----------------|
   1 + 2 + 3 + 4 +   1 + 2 + 3 + 4 +   1 + 2 + 3 + 4 +   1 + 2 + 3 + 4 +

e|-----------------|-----------------|-----------------|-----------------|
B|-----------------|-----------------|-----------------|-----------------|
G|-----------------|-----------------|-----------------|-----------------|
D|-----------------|-4---4---4---4-5-|-6---6-4-6---4---|---8-8-8-8-8-8-8-|
A|-4---4---4---4---|-------6---------|-----------------|---6-6-6-6-6-6-6-|
E|-------7-------7-|-----------------|-----------------|-----------------|
   1 + 2 + 3 + 4 +   1 + 2 + 3 + 4 +   1 + 2 + 3 + 4 +   1 + 2 + 3 + 4 +

Next Part (Rhythm guitar)
                                       * 11 = Eleven
e|-----------------|-----------------|-----------------|-----------------|
B|-----------------|-----------------|-----------------|-----------------|
G|-----------------|-----------------|-11--111111--1111|-11--111111111100|
D|-9---9-9-9---9-9-|-9---9-9-9-9-9-00|-11--111111--1111|-11--111111111100|
A|-9---9-9-9---9-9-|-9---9-9-9-9-9-00|-9---9-9-9---9-9-|-9---9-9-9-9-9-00|
E|-7---7-7-7---7-7-|-7---7-7-7-7-7-00|-----------------|-----------------|
   1 + 2 + 3 + 4 +   1 + 2 + 3 + 4 +   1 + 2 + 3 + 4 +   1 + 2 + 3 + 4 +

e|-----------------|-----------------|-----------------|-----------------|
B|-----------------|-----------------|-----------------|-12--12--12--12--|
G|-----------------|-----------------|-9---9---9---9///|-12--12--12--12--|
D|-6---6-6-6---6-6-|-6---6-6-6-6-6-00|-9---9---9---9///|-11--11--11--11--|
A|-6---6-6-6---6-6-|-6---6-6-6-6-6-00|-7---7---7---7///|-10--10--10--10--|
E|-4---4-4-4---4-4-|-4---4-4-4-4-4-00|-----------------|-----------------|
   1 + 2 + 3 + 4 +   1 + 2 + 3 + 4 +   1 + 2 + 3 + 4 +   1 + 2 + 3 + 4 +

Solo 

* 11 = Eleven
e|-----------------|-------------------|------------------|-----------------------|
B|-----------------|-------------------|------------------|-----------------------|
G|/8---8---8---8\--|--/8-8---8-11-11-8-|------------------|--------------11-11-12-|
D|-------11--------|-------11----------|-11--11-9-11--11\-|--/11-11-9-11----------|
A|-----------------|-------------------|------------------|-----------------------|
E|-----------------|-------------------|------------------|-----------------------|
   1 + 2 + 3 + 4 +   1 + 2 + 3 +  4  +   1 + 2  + 3 + 4 +   1 +  2  + 3  +  4  +

e|-------------------|------------------------|------------------------|-----------------|
B|(12--12-11-12--12\-|---12-12-14-16-14-12-11)|-9-----11--11---12--12--|---16----14------| 
G|-13--13-11-13--13\-|---13-13-15-16-15-13-11-|-11^---13^-13^--14^-14^-|---18^---16^-----|
D|-------------------|------------------------|------------------------|-----------------|
A|-------------------|------------------------|------------------------|-----------------|
E|-------------------|------------------------|------------------------|-----------------|
   1 + 2  +  3 + 4 +   1 +  2  +  3  +  4   +   1 + 2 +   3  + 4   +     1 + 2 + 3 + 4 +
(Brackets are overdubbed)

2 Bars (Na, na na na, na na na, na na na, na!)

OUTRO (With synth)

e|-----------------|-----------------|-----------------|-----------------|
B|-----------------|-----------------|-----------------|-----------------|
G|-----------------|-----------------|-11--11--11--11--|-11--11--11--11--|
D|-9---9---9---9---|-9---9---9---9---|-11--11--11--11--|-11--11--11--11--|
A|-9---9---9---9---|-9---9---9---9---|-9---9---9---9---|-9---9---9---9---|
E|-7---7---7---7---|-7---7---7---7---|-----------------|-----------------|
   1 + 2 + 3 + 4 +   1 + 2 + 3 + 4 +   1 + 2 + 3 + 4 +   1 + 2 + 3 + 4 +

e|-----------------|-----------------|-----------------|-----------------|
B|-----------------|-----------------|-----------------|-12--------------|
G|-----------------|-----------------|-9---------------|-12--------------|
D|-6---6---6---6---|-6---6---6---6---|-9---------------|-11--------------|
A|-6---6---6---6---|-6---6---6---6---|-7---------------|-10--------------|
E|-4---4---4---4---|-4---4---4---4---|-----------------|-----------------|
   1 + 2 + 3 + 4 +   1 + 2 + 3 + 4 +   1 + 2 + 3 + 4 +   1 + 2 + 3 + 4 +

e|-----------------|-----------------|-----------------|-----------------|
B|-----------------|-12--------------|-----------------|-12--------------|
G|-9---------------|-12--------------|-9---------------|-12--------------|
D|-9---------------|-11--------------|-9---------------|-11--------------|
A|-7---------------|-10--------------|-7---------------|-10--------------|
E|-----------------|-----------------|-----------------|-----------------|
   1 + 2 + 3 + 4 +   1 + 2 + 3 + 4 +   1 + 2 + 3 + 4 +   1 + 2 + 3 + 4 +

END ON!

e|---|
B|---|
G|-4-|
D|-4-|
A|-2-|
E|---|

hahaha del nuevo disco jajaja

Que te parecio? Calificalo con estrellas!!

Rating: 8.5/10 (395 votos)

Este fichero es trabajo propio de su transcriptor y representa su interpretación personal de la canción. El material contenido en esta página es para exclusivo uso privado, por lo que se prohibe su reproducción o retransmisión, así como su uso para fines comerciales.


Deja tus comentarios:
Letras de canciones | Musica Independiente