Enviado por:
patriota00

Enanitos Verdes, Tu Carcel

INTRO.

   C                             G                            A
G|--------------------------------------|------------------------------
D|-----5-----5---------5------5-------5-|----------5--5----3---------9-
A|-3-----3-----5---3-----3------5---5---|-5-------5-----5----3------9--
E|--------------------------------3-----|---5--3---------------s--7----

   G  F         D       G
G|----------------7--------------------------------------
D|--------------7---5--------------5----5--------------
A|--------3--5--------5----5-----------------------------
E|-3--1-----------------3----5--3-----3----3-------------

Acompañamiento
   C                             G                            A
G|--------------------------------------|-------------------------------
D|-----5-----5---------5------5-------5-|----------5--5----3--------9---
A|-3-----3-----5---3-----3------5---5---|-5-------5-----5----3-----9----
E|--------------------------------3-----|---5--3--------------s---7-----

   G  F          D          G
G|--------------------7--------------------------------------
D|----------3-------7---5--------------5----5--------------
A|--------3----s--5--------5----5-----------------------------
E|-3--1----------------------3----5--3-----3----3-------------


Coro:
G|-------------------------------------5-----------------------------
D|-----------------------------------------5-----------5-----5-5-----
A|-3-3-3----------------3-3-3--------3---3---3-------5-----5-----5---
E|-------3-1---1-1-3-3-3------3-1--------------3-3-3------3--------3-

G|-------------------------------------7-------------------------------
D|---5-----------------9-7-----3-----7---5-----------------------------
A|-------5-----------9-------3---s-5--------7--5---------7--5----------
E|-3---3----3-s--7-7-------1---------------------7--5--3-------7?5--3--

Esto es como creo que suena.

Me llega mucho la música de los bukis especialmente la creatividad
que le impregnó el ahora ?Siervo? Cortez en el bajo.

Saludos.

Walter_sable@hotmail.com
Aviso: Este fichero es trabajo propio de su transcriptor y representa su interpretación personal de la canción. El material contenido en esta página es para exclusivo uso privado, por lo que se prohibe su reproducción o retransmisión, así como su uso para fines comerciales.
comentario del colaborador: lo copie de lacuerda.net

Califica esta canción


Comentarios en Facebook