Enviado por: Alton-Rock
Agrandar Letra
Reducir Letra
Imprimir



Mario Bross, Mario Bros

MARIO BROS

Esta es la primera canción que subo, la vi en otra parte pero la modifique un poco, si hay algun error, avisenme... OJALA LES GUSTE:

--0-0-0---0-3-----------
--------1---------------
----------------0-------
------------------------
------------------------
------------------------ x1

|------------------------------0-3-5-1-3-0------------------|
|-1-----------1-0---------------------------1-3-0-----------|
|----0-----2-------2-------0--------------------------------|
|-------2---------------------------------------------------|
|-----------------------------------------------------------|
|-----------------------------------------------------------| x2

|-3-2-1--------------------3-2-1------8-8-8-----------------
|--------4-5-----1---1-3---------4-5------------------------
|------------1-2---2----------------------------------------
|-----------------------------------------------------------
|-----------------------------------------------------------
|-----------------------------------------------------------

-3-2-1--------------------------------------|
-------4-5-----1---1-3-4-3-1----------------|
-----------1-2---2-----------0-0------------|
--------------------------------------------|
--------------------------------------------|
--------------------------------------------| x2
Aviso: Este fichero es trabajo propio de su transcriptor y representa su interpretación personal de la canción. El material contenido en esta página es para exclusivo uso privado, por lo que se prohibe su reproducción o retransmisión, así como su uso para fines comerciales.

Califica esta canción


Comentarios en Facebook