Enviado por:
patriota00








No Te Va A Gustar, Al Vacio

Imprimir
intro  y verso

G|---------------------------------------------|
D|----------44444444-4-3-22222222--------------|
A|-22222222------------------------5555-44-5---|
E|-------------------------------------------5-|

E|---------------------------------------------|
D|----------44444444-4-3-22222222--------------|
A|-22222222-----------------------5555---------|
E|-------------------------------------222-0-2-|

No quiero mas , verte pasar...

G|------------------------|
D|------------------------|
A|-22222222---------------|
E|---------222222-0-2-4---|(x3)

Solo me quiero sentar a esperar...

G|--------------------------|
D|-5555555-5/4-4444444444---|
A|--------------------------|
E|--------------------------|

Estribillo

G|---------------------------------------------------------------|
D|---------------------------------------------------------------|
A|-777-00-555-----777----99999999-777----2222222-----------------|
E|------------33------33--------------55---------33333333-222222-|

Alejarte de aca...

G|----------------------------|
D|----------------------------|
A|-2222-55--------------------|
E|---------5--555555----------|(x4)

G|----------------|
D|----------------|
A|----------------|
E|-2-3-5----------|(pase del bajo antes del segundo verso)

/ = ligado
Aviso: Este fichero es trabajo propio de su transcriptor y representa su interpretación personal de la canción. El material contenido en esta página es para exclusivo uso privado, por lo que se prohibe su reproducción o retransmisión, así como su uso para fines comerciales.
comentario del colaborador: lo copie de la cuerda.net

Califica esta canción


Comentarios en Facebook