Acordes y tablaturas para guitarra

Acordes y Tablaturas
Usuario: Password:

Buscar:
Acordes y Tablaturas >> Letra P >> Acordes de Perro Callejero >> Yo Quiero Ser
Tablatura de Yo Quiero Ser, Perro Callejero

Yo Quiero Ser

Perro Callejero






aki subiendo mi 1° rolita espero les guste

INTRO
  E
1)------------->
2)------------->
3)------------->
4)------------->
5)-2222222222-->
6)-0000000000-->

   E                            C#m
1)--------------------------------------------->
2)--------------------------------------------->
3)--------------------------------------------->
4)------------------------------66666666666666->
5)-2222222222222222222222222222-44444444444444->
6)-0000000000000000000000000000---------------->
   A nadie extraña ya, que este hablando de ti

      A                  B                   C#m
   1)-------------------------------------------------->
   2)-------------------------------------------------->
   3)-------------------------------------------------->
   4)-222222222222222222-4444444444444444444-666666666->
   5)-000000000000000000-2222222222222222222-444444444->
   6)-------------------------------------------------->
y que todo el tiempo, me la pase pensando en ti

     E                C#m
  1)------------------------------->
  2)------------------------------->
  3)------------------------------->
  4)------------------666666666666->
  5)-2222222222222222-444444444444->
  6)-0000000000000000-------------->
imagino caminar, y tu mano tomar

        A                     B                  C#m
     1)--------------------------------------------------->
     2)--------------------------------------------------->
     3)--------------------------------------------------->
     4)-222222222222222222222-444444444444444444-66666666->
     5)-000000000000000000000-222222222222222222-44444444->
     6)--------------------------------------------------->
con la lluvia cayendo, en las calles de esta ciudad

        A                     B                  E      B
     1)------------------------------------------------------->
     2)------------------------------------------------------->
     3)------------------------------------------------------->
     4)-222222222222222222222-444444444444444444--------44444->
     5)-000000000000000000000-222222222222222222-222222-22222->
     6)------------------------------------------000000------->
con la lluvia cayendo, en las calles de esta ciudad...

     E                    C#m
  1)------------------------------------->
  2)------------------------------------->
  3)------------------------------------->
  4)----------------------66666666666666->
  5)-22222222222222222222-44444444444444->
  6)-00000000000000000000---------------->
una mañana mas, otro encuentro fugaz

      A               B                  C#m
   1)---------------------------------------------->
   2)---------------------------------------------->
   3)---------------------------------------------->
   4)-222222222222222-444444444444444444-666666666->
   5)-000000000000000-222222222222222222-444444444->
   6)---------------------------------------------->
por ahora solo me conformo, con verte pasar

        E                      C#m
     1)--------------------------------------->
     2)--------------------------------------->
     3)--------------------------------------->
     4)------------------------66666666666666->
     5)-2222222222222222222222-44444444444444->
     6)-0000000000000000000000---------------->
quiero poderte hablar, estar cerca de ti

          A                        B                 C#m
       1)------------------------------------------------------>
       2)------------------------------------------------------>
       3)------------------------------------------------------>
       4)-222222222222222222222222-44444444444444444-666666666->
       5)-000000000000000000000000-22222222222222222-444444444->
       6)------------------------------------------------------>
y que el tiempo, me encuentre a tu lado en la eternidad

          A                        B                 E     B
       1)-------------------------------------------------------->
       2)-------------------------------------------------------->
       3)--------------------------------------------------44444->
       4)-222222222222222222222222-44444444444444444-------22222->
       5)-000000000000000000000000-22222222222222222-22222------->
       6)--------------------------------------------00000------->
y que el tiempo, me encuentre a tu lado en la eternidad

   C#m
1)-------4-------------4------->
2)-----5---5---5-----5---5---5->
3)---6-------6-----6-------6--->
4)-6-------------6------------->
5)----------------------------->
6)----------------------------->
contigo platicar

   G#m
1)-------4--------------4------->
2)---------4---4----------4---4->
3)---4-------4------4-------4--->
4)-6---6----------6---6--------->
5)------------------------------>
6)------------------------------>
contigo despertar

   F#
1)-------2--------------2------->
2)---------2---2----------2---2->
3)---3-------3------3-------3--->
4)-4---4----------4---4--------->
5)------------------------------>
6)------------------------------>
y un te quiero quiza,

   B
1)-------2--------------2-------|
2)---------4---4----------4---4-|
3)---3-------4------3-------4---|
4)-4---4----------4---4---------|
5)------------------------------|
6)------------------------------|
me lo digas a miiiii

     ACORDES DEL CORO (distor)
   E  C#m  B   A
1)---|---|---|---|
2)---|---|---|---|
3)-9-|-6-|-4-|---|
4)-9-|-6-|-4-|-7-|
5)-7-|-4-|-2-|-7-|
6)---|---|---|-5-|

E         C#m         B
yo quiero ser, el que besa tus labios
          A                      B
el que te hace el amor, el que duerme en tus brazos
E         C#m          B
yo quiero ser, el que vive en tus sueños
          A                   B
el que te hace reir, a quien dices te amoooooo

SOLO:
E - C#m - B - A - B - E

     E                    C#m
  1)------------------------------------->
  2)------------------------------------->
  3)------------------------------------->
  4)----------------------66666666666666->
  5)-22222222222222222222-44444444444444->
  6)-00000000000000000000---------------->
una mañana mas, otro encuentro fugaz

      A               B                  C#m
   1)---------------------------------------------->
   2)---------------------------------------------->
   3)---------------------------------------------->
   4)-222222222222222-444444444444444444-666666666->
   5)-000000000000000-222222222222222222-444444444->
   6)---------------------------------------------->
por ahora solo me conformo, con verte pasar

       E                      C#m
    1)--------------------------------------->
    2)--------------------------------------->
    3)--------------------------------------->
    4)------------------------66666666666666->
    5)-2222222222222222222222-44444444444444->
    6)-0000000000000000000000---------------->
quiero poderte hablar, estar cerca de ti

          A                        B                 C#m
       1)------------------------------------------------------>
       2)------------------------------------------------------>
       3)------------------------------------------------------>
       4)-222222222222222222222222-44444444444444444-666666666->
       5)-000000000000000000000000-22222222222222222-444444444->
       6)------------------------------------------------------>
y que el tiempo, me encuentre a tu lado en la eternidad

          A                        B                 E     B
       1)-------------------------------------------------------->
       2)-------------------------------------------------------->
       3)--------------------------------------------------44444->
       4)-222222222222222222222222-44444444444444444-------22222->
       5)-000000000000000000000000-22222222222222222-22222------->
       6)--------------------------------------------00000------->
y que el tiempo, me encuentre a tu lado en la eternidad

   C#m
1)-------4-------------4------->
2)-----5---5---5-----5---5---5->
3)---6-------6-----6-------6--->
4)-6-------------6------------->
5)----------------------------->
6)----------------------------->
contigo platicar

   G#m
1)-------4--------------4------->
2)---------4---4----------4---4->
3)---4-------4------4-------4--->
4)-6---6----------6---6--------->
5)------------------------------>
6)------------------------------>
contigo despertar

   F#
1)-------2--------------2------->
2)---------2---2----------2---2->
3)---3-------3------3-------3--->
4)-4---4----------4---4--------->
5)------------------------------>
6)------------------------------>
y un te quiero quiza,

  B
1)-------2--------------2-------|
2)---------4---4----------4---4-|
3)---3-------4------3-------4---|
4)-4---4----------4---4---------|
5)------------------------------|
6)------------------------------|
me lo digas a miiiiii

E         C#m         B
yo quiero ser, el que besa tus labios
          A                      B
el que te hace el amor, el que duerme en tus brazos
E         C#m          B
yo quiero ser, el que vive en tus sueños
          A                   B
el que te hace reir, a quien dices te amoooooo

2° SOLO:
E - C#m - B - A - B (X2)

ACORDES DEL CORO aumentan de tono (distor)
   F   Dm   C  Bb
1)----|---|---|---|
2)----|---|---|---|
3)-10-|-7-|-5-|-3-|
4)-10-|-7-|-5-|-3-|
5)-8--|-5-|-3-|-1-|
6)----|---|---|---|

F         Dm          C
yo quiero ser, el que besa tus labios
          Bb                     C
el que te hace el amor, el que duerme en tus brazos
F         Dm          C
yo quiero ser, el que vive en tus sueños
          Bb                  C
el que te hace reir, a quien dices te amoooooo
          Bb                  C
el que te hace reir, a quien dices te amoooooo...

   F...
1)--------------------------|
2)--------------------------|
3)--------------------------|
4)--------------------------|
5)-3333333333333333333333-3-|
6)-1111111111111111111111-1-|

Que te parecio? Calificalo con estrellas!!

Rating: 7.5/10 (75 votos)

Este fichero es trabajo propio de su transcriptor y representa su interpretación personal de la canción. El material contenido en esta página es para exclusivo uso privado, por lo que se prohibe su reproducción o retransmisión, así como su uso para fines comerciales.


Comentario de 10r1yagami
esta va p/ todos los enamora2
Deja tus comentarios:
Letras de canciones | Musica Independiente