Acordes y tablaturas para guitarra

Acordes y Tablaturas
Usuario: Password:

Buscar:
Acordes y Tablaturas >> Letra L >> Acordes de Los Indios Tacunau >> Canto Del Arpa
Tablatura de Canto Del Arpa, Los Indios Tacunau

Canto Del Arpa

Los Indios Tacunau






Nombre: Canto del Arpa


Intérprete: Rubén Durán


Tab by Santiago |_.R._|

|-7-7-7-7-7-7-7-7-7-7-7-7-5-5-5-5-5-5-5-5-3-3-3-3-2-2-2-2-0-0-0-0-0-0--------------   
|8-8-8-8-7-7-7-7-6-6-6-6-5-5-5-5-5-5-5-5-5-5-5-5-4-4-4-4-0-0-0-----0---------------   
|----------------------------------------------------------------------------------   
|----------------------------------------------------------------------------------   
|----------------------------------------------------------------------------------   
|----------------------------------------------------------------------------------   
  										      
|7--7--7--7--7--7-7-----7---7--7--7--7--7-7-----7--7--7--7--7--7-7-----5--5--5--5--5    
|--8-----8-----8---8-------7-----7-----7---7------6-----6-----6---6------5-----5----
|-----------------------------------------------------------------------------------  
|-----------------------------------------------------------------------------------
|-----------------------------------------------------------------------------------   
|-----------------------------------------------------------------------------------   
								   	   	      	
|------------------7---------------------------------------------------------------  
|-----------7-8-10--10-8-7-8-7-----------------------------------------------------      
|-------7-9--------------------9-7-------------------------------------------------   
|7-9-10----------------------------10--7-8-9-7-------------------------------------   
|----------------------------------------------10-9-7------------------------------   
|----------------------------------------------------------------------------------   
										      	

|---------------------------------------------------------------------------------- 

|--------10-12---------10-12---------10-12-13-15-13-13-12-12-11-12-----------------
|9-11-12-------9-11-12-------9-11-12----------------------------------------------- 
|---------------------------------------------------------------------------------- 

|---------------------------------------------------------------------------------- 

|----------------------------------------------------------------------------------

|---------------------------------------------------------------------------------- 

|-------8-10--------8-10--------8-10-12-15-12-13-12-12-11-12-----------------------  

|8-9-11------8-9-11------8-9-11---------------------------------------------------- 

|---------------------------------------------------------------------------------- 

|----------------------------------------------------------------------------------             

|----------------------------------------------------------------------------------

|------------------------------------------------------------------------------------ 

|--------10-12-13-12-11-12-------10-12-10-12---------10-12-13-15-17-16-16-15-15-14-15  

|9-11-12------------------9-11-12------------9-11-12--------------------------------- 

|------------------------------------------------------------------------------------ 

|------------------------------------------------------------------------------------ 

|------------------------------------------------------------------------------------

|--12--12--12--12--12--12--12--12-11-8-7----------------7-12-----------------------
|13--13--13--13--12--12--12--12----------10-8-7-------8----------------------------
|-----------------------------------------------9-8-9------------------------------
|----------------------------------------------------------------------------------
|----------------------------------------------------------------------------------
|----------------------------------------------------------------------------------

|--12--12--12--12--12--12--12--12--11--11--11--11-12-------------------------------
|13--13--13--13--12--12--12--12--12--12--12--12-----12-----------------------------
|-----------------------------------------------------12---------------------------
|-------------------------------------------------------14-------------------------
|----------------------------------------------------------------------------------
|----------------------------------------------------------------------------------

|----------------------------------------------------------------------------------
|----------------------------------------------------------------------------------
|----------------------------------------------------------------------------------
|----------------------------------------------------------------------------------
|----------------------------------------------------------------------------------
|----------------------------------------------------------------------------------



Bueno, me falta sacar un cachito mas jaja, pero bue, ya lo ire actualizando ;)                          TIAGO123

Les dejo mi mail x cualquier duda [email protected]
chau !

Que te parecio? Calificalo con estrellas!!

Rating: 7.2/10 (52 votos)

Este fichero es trabajo propio de su transcriptor y representa su interpretación personal de la canción. El material contenido en esta página es para exclusivo uso privado, por lo que se prohibe su reproducción o retransmisión, así como su uso para fines comerciales.


Deja tus comentarios:
Letras de canciones | Musica Independiente