Acordes y tablaturas para guitarra

Acordes y Tablaturas
Usuario: Password:

Buscar:
Acordes y Tablaturas >> Letra B >> Acordes de Bon Jovi >> Wanted Dead Or Alive
Tablatura de Wanted Dead Or Alive, Bon Jovi

Wanted Dead Or Alive

Bon Jovi






\______/
 ||||||
 111111
 ||||2|
 |3||||
 Dadd9                  \            /
                         \          /
                          \	   /
                           \  /\  / 
\______/                    \/  \/
 X||||1                        /\
 |||2||                       /  \
 ||||3|                      /____\
 ||||||                     /      \
   Dm                      /        \
                            /\      /
	                   /  \    /
                          /    \  /
\______/                 /      \/
 ||||1|                  ____________
 ||2|||                       ||
 |3||||                       ||
 ||||||                       ||
   C                          ||
                              ||
	                 ____________
                         | 
\______/                 |
 111111                  | 
 |||2||                  ------------
 |34|||                  |
 ||||||                  |
   F                     | 
                         ------------
	                  
                         |--
\______/                 |  -  
 ||||||                  |   -
 |1||||                  |    -
 2|||34                  |    -
 ||||||                  |  -
   G                     |--

	
                         ______   
\______/               -        -
 X|||||              -            -
 |||1||            -                -
 ||||34            |                |
 ||||||            |                |
 Dsus4             -                -
                     -            -
	               -        -
                         ------
\______/
 ||||1|             |
 ||2|||             |=======
 |3||||             |      |
 ||||||             |   ---|
   C/E              |   \ 
                    |    \...
	

\______/            
 X|||||               
 |||1|2
 ||||3|
 ||||||
    D

	

\______/
 ||||1|
 |2||||
 ||||||
 ||||||
 C add9 

\______/
 ||||1|
 ||2|||
 |3||||
 ||||||
   C

	

	



(ideal para Violão/guitarra de 12 cordas)

(intro)

E |-------13----------12----------10----------8--------5---------3----B                                   |-------------------------------------------------------------------
G |----14----14----12----12----10----10----9----9----5----5----4----4
D |--0-----------0-----------0----------0---------0---------0---------
A |-------------------------------------------------------------------
E |-------------------------------------------------------------------

          C     F    Dadd2           C     F    Dadd2
E |-----------------0--------|------------------0--------|------------
B |-------------------3---3--|--------------------3---3--|------------
G |---------------------2---2|----------------------2---2|------------
D |--------0-3-0-------------|---------0-3-0-------------|------------
A |--0-0-3-------------------|---0-0-3-------------------|---0-0-3-2--
E |--------------------------|---------------------------|------------

    D         (D Dsus4 Dadd9)  C                   G
It's all the same,             only the names will change.
   C     G                 C  F     D
Ev'ryday,  seems we're wasting away.
    D         (D  Dsus4  Dadd9)   C                   G
Another place,                  where the faces are so cold.
   C        G              C  F     D
I travel all night just  get back  home.

(coro)
        C      G       F             D  Dadd2
I'm  a cowboy,   on a steel horse I ride
        C   G      F          D  Dadd2
I'm wanted,  dead or alive.
    C   G      F          D  Dadd2
Wanted,  dead or alive.

    D             (D#4  D  Dadd9)    C                  G
Sometimes I sleep,             sometimes it's not for days.
C                 G   C             F        D
And people I meet,  always go their seperate ways.
    D             (D#4  D  Dadd9)    C          G
Sometimes you tell the day by the bottle that you drink.
C                    G       C       F      D
And times when you're  alone all you do is drink.

(coro)
(intro 2x)
(solo)
                            AH|-----------------|
E |-----------------------------------------------------
B |-----------------------------------------------------
G |-------7-7-7---7--7-7--------------------------------
D |-------x-x-x---x--x-x-------------3-5b7-5b7-5b7-5b7-3
A |-------5/3/5---5--3/5---3-5--------------------------
E |-----------------------------------------------------

                                                      AH
E |-------------13-15-15b17-15-13-15-15b17----------------------------
B |-------13-15-------------------------------------------------------
G |-12-14-------------------------------------------------------------
D |----------------------------------------------------5b7---------7/5-5/7-----------
A |--------------------------------------------12/----------0-0----5/3-3/5------12/--
E |--------------------------------------------12/------------------------------12/--

          AH        AH|-----|
E |-----------------------------------------------------
B |-----------------------------------------------------
G |-----------------------------------------------------
D |--------3---------3-5-5b7-3------3-----------5b7-3---
A |---3-5----5--3-5-------------------5-3p0h3-5---------
E |-----------------------------------------------------

                    AH|------| PM|---------|
E |------------------------------------------------x-----
B |-----13---------15------------------------------3-----
G |--12---12-10-12-----12b14-10--------------------2-----
D |-------------------------------7-7-5-9-7-5------0-----
A |-------------------------------5-5-3-7-5-3------------
E |------------------------------------------------------

(***após o solo as notas power chords, inclusive o coro
(lembra-se que o guitarrista troca o violão de 12 cordas por uma guitarra antes do solo)

(coro)

 D5                     C5                   G5
I walk these streets, a loaded six string on my back.
  C5              G5         C5        F5      D5
I play for keeps,  cause I might not make it back.
 D5                        C5             G5
I've been everywhere, still I'm standing tall.
     C5               G5              C5    F5   D5
I've seen a million faces, and I've rocked them all.

(passagem) ( é usada nas versões ao vivo. O richie sambora faz este improviso)
E |--------------------------------------10-----------10-----------------------------
B |------------------------------------10---12b e vbr----13-10-----------------------
G |-------------10-12(bend-------10-12b------------------------12b-10----12-10-------
D |----------12-----vibrato)--12--------------------------------------12------12-/-12-10-
A |-------12-------------------------------------------------------------------------
E |-10-13----------------------------------------------------------------------------

D |------------------------
A |-12/10--/8--------------
E |-----------10-----------

(coro 2x)
(intro 2x) D é o último acorde

(versos e coro)

(versos)

         D         (D Dsus4 Dadd9)   C                   G
E |---2-------2-----2-3-2-0--0^2--3--------3----------3-----------|
B |---3-------3-----3-3-3-3--3----3--------3----------3-----------|
G |---2-------2-----2-2-2-2--2----0--------0----------0-----------|
D |---0-------0-----0-------------2--------2----------0-----------2
A |-------------------------------3--------2----------2------02b0-
E |---------------------------------------------------3-----------|
  It's all the same,              only the names will change.
  Another place,                  where the faces are so cold.


        C        G               C  F     D
E |--3---3----3----3-------3--3--1-----2--2-3-0^2------------|
B |--3---3----3----3-------3--3--1-----3--3-3-3-3------------|
G |--0---0----0----0-------0--0--0-----2--2-2-2-2------------|
D |--2---2----0----0-------0--2--3-----0--0-0-0-0------------|
A |--3---3----2----2-------2--3--3---------------------------|
E |-----------3----3-------3---------------------------------|
    Ev'ryday,     seems we're wasting away.
  I travel all night just    get back  home.           I'm

(coro)

         C        G              F             D
E |---3----3---3--------------1-----1-------2-----2-3-0^2-----|
B |---3----3---3--------------1-----1-------3-----3-3-3-3-----|
G |---0--------0--------------0-----0-------2-----2-2-2-2-----|
D |---2--------0--------------3-----3-------0-----0-0-0-0-----|
A |---3-----------------------3-----3-------------------------|
E |------------3----------------------------------------------|
    a cowboy,            on a steel horse I ride.          I'm

E |---3----3---3----------------------2--------------|
B |---3----3---3----------------------3--------------|
G |---0--------0-------------2--2--2--2--------------|
D |---2--------0-------------x--0--3--0--------------|
A |---3----------------------3-----------------------|
E |------------3-------------------------------------|
     wanted,               dead or alive.
     wanted,               dead or alive.

Que te parecio? Calificalo con estrellas!!

Rating: 5.7/10 (75 votos)

Este fichero es trabajo propio de su transcriptor y representa su interpretación personal de la canción. El material contenido en esta página es para exclusivo uso privado, por lo que se prohibe su reproducción o retransmisión, así como su uso para fines comerciales.


Comentario de huesitos34
muy bueno XD
Deja tus comentarios:
Letras de canciones | Musica Independiente