Acordes y tablaturas para guitarra

Acordes y Tablaturas
Usuario: Password:

Buscar:
Acordes y Tablaturas >> Letra L >> Acordes de LIRAN`ROLL >> El Pianista
Tablatura de El Pianista, LIRAN`ROLL

El Pianista

LIRAN`ROLL






INTRODUCCION

1|-0h1--si-->3--------------3----1--------0h1-Po-0---|
2|-------------------------------------------------1-|

1|---------1--0---------|
2|-0-Po-1---------3---1-|

1|-------------------|-------|--------|-------------------|-------|
2|-----1---------1---|-6-5-3-|----1---|-----1---------1---|-6-5-3-|
3|---0---0-----0---0-|-5-4-2-|--0---0-|---0---0-----0---0-|-5-4-2-|
4|-------------------|-7-5-3-|--------|-------------------|-7-5-3-|
5|-0---------2-------|-------|-3------|-0---------2-------|-------|
6|-------------------|-------|--------|-------------------|-------|

VOZ 1ª PARTE  RIFF 1ª PARTE

   C                   C/B                    Am         Am/G
1|-------------------|-----------------------|-0--------|-----------|
2|-1-----------1-----|-3--------------3------|--------1-|-----1---1-|
3|--------0----------|----------0------------|------2---|---0---0---|
4|-------------------|-----------------------|----------|-----------|
5|-3-----------------|-2---------------------|-0--------|-----------|
6|-------------------|-----------------------|----------|-3---------|
    Esta  es   la   historia     de    un   sábado,

   FMaj7     C                 D7       G
1|----------|----------------|---------|---------------|
2|-------1--|------------1---|-------1-|---------------|
3|----2-----|----------------|-----2---|----------0----|
4|-3--------|-------0--------|--0------|----0H2--------|
5|----------|----------------|---------|---------------|
6|----------|----3-----------|---------|-3-------------|
       Que importa    cuál  mes,            y  de   un

   C                C/B               Am       Am/G
1|--------------|------------------|---0------|------------------|
2|-1--------1---|----3--------3----|-------1--|-------1---1------|
3|----0---------|---------0--------|-----2?---|-----0---0--------|
4|--------------|------------------|----------|------------------|
5|-3------------|----2-------------|----------|------------------|
6|--------------|------------------|---0------|-3----------------|
   Hombre    sentado      al     piano                que   im---


1|-----------------|-----------|-------------|--0-----------|
2|-----------1-----|---0|------|----------1--|-------1------|
3|------2----------|---0|------|-------0-----|----------0---|
4|---3-------------|---0|------|-------------|--------------|
5|-----------------|----R------|----3--------|--------------|
6|-----------------|-----------|-------------|--------------|
   -porta   cuál   viejo      café.





SOLO 1

1|--3-----3---1---0h1-Po-0----------------|
2|--------------------------1------0-Po-1-|

1|----------1?0----------|
2|-0-Po-1---------3---1--|


VOZ 2ª PARTE  RIFF 2ª PARTE

EN ESTA PARTE SE CANTA CON RASGUEO,
EL ARPEGEO SERÁ SOLO EN EL CORO Y EN EL RIFF 1ª PARTE

       C           C/B           Am  Am/G FMaj7        C          D7
Toma el vaso y le tiemblan las manos, apestando entre humo y sudor,
G     C             C/B         Am  Am/G  FMaj7       G            C
 Y se agarra en su tabla de náufrago, volviendo a su eterna canción.

CORO: RIFF DEL CORO
          Am           Am/G              Am/F#
1|----------------0--|-----------0------|----------0--|-----------|
2|-------------1-----|-------1----------|-------1-----|-----------|
3|-------------------|------------------|-------------|-----------|
4|-------------------|------------------|-------------|-----------|
5|-3?--2-?-0---------|------------------|-------------|----3?-2---|
6|-------------------|--3---------------|--2----------|-1---------|
  Oh  oh   la     ra    ra       la   ra    raaa

   Am              Am/G             Am/F#
1|----------0----|-----------0-----|-----------|--0---------|
2|-----2---------|------1----------|--------1--|-----1------|
3|---------------|-----------------|-----2-----|--------2---|
4|---------------|-----------------|-----------|------------|
5|-0-------------|-----------------|-----------|------------|
6|---------------|--3--------------|--2--------|------------|
             Lara  ra          lara    raaaaaaaa       aah

  G           G/F                G/E            G/D
1|--------3--|-------------3----|-----------3--|--3---3-3-3-3--|
2|------0----|--------0---------|-------0------|--0---0-0-0-0--|
3|-----------|------------------|--------------|--0---0-0-0-0--|
4|-----------|------------------|--------------|--0---0-0-0-0--|
5|-----------|------------------|--------------|---------------|
6|--3--------|---1--------------|--0-----------|---------------|
   aah           aah               ahh


A PARTIR DE AQUÍ SÓLO MENCIONARÉ EL RIFF QUE SE UTILIZA
PARA CADA PARTE DE LA CANCIÓN PARA AHORRAR ESPACIO

RIFF 2ª PARTE

 C        C/D         Am     Am/G
Toca otra vez, viejo perdedor
FMaj7      C         D7   G
Haces que me sienta bien
         C        C/B      Am         Am/G
Es tan triste la noche que tu canción
FMaj7       G        C
Sabe a derrota y a miel.
SE REPITE LA INTRODUCCIÓN

RIFF 1ª PARTE

      C        C/B    Am        Am/G
Cada vez el espejo en la pared
   FMaj7         C         D7  G
Le devuelve más joven la piel
          C          C/B    Am        Am/G
Se le encienden los ojos, y su niñez
FMaj7      G           C   FMaj7
Viene a tocar junto a él.

RIFF 2ª PARTE

       C             C/B        Am     Am/G
Pero siempre hay borrachos con barbas
FMaj7     C             D7    G
Que le recuerdan quién fue
        C      C/B         Am   Am/G
El más joven maestro al piano
FMaj7         G    C
Vencido por una mujer.

RIFF DEL CORO

Am      Am/G        Am/F#
La, ra, ra, la, ra, raaa,
Am     Am/G     Am/F#
La ra ra, la ra ra,
      G    G/F  G/E
Aah, aah, aah, aah.

RIFF 1ª PARTE

      C        C/B     Am      Am/F#
Ella nunca quiso echar raíces
    FMaj7        C        D7   G
Que pudieran sus alas cortar,
       C       C/B       Am          Am/G
Y en la jaula metida la vida se le iba
FMaj7      G          C
Y quiso sus fuerzas probar.

RIFF 2ª PARTE

       C       C/B  Am         Am/G
No lo deja que dé malos pasos
   FMaj7        C       D7  G
Aunque nunca desea su mal
       C       C/B     Am          Am/G
Pero a ratos con furia golpea el piano
       FMaj7               G
Y hay algunos que lo han visto llorar.

RIFF DEL CORO

Am       Am/G        Am/F#
La, ra, ra, la, ra, raaa,
Am    Am/G       Am/F#
La ra ra, la ra ra,
      G    G/F  G/E
Aah, aah, aah, aah.

RIFF 2ª PARTE

     C        C/B     Am      Am/G
Toca otra vez viejo perdedor
FMaj7     C           D7   G
Haces que me sienta bien
         C       C/B       Am         Am/G
Es tan triste la noche que tu canción
FMaj7      G         C   FMaj7
Sabe a derrota y a miel.

SOLO 1

RIFF 2ª PARTE

       C      C/B        Am   Am/G
El micrófono huele a cerveza
      FMaj7       C    D7  G
Y el calor se podía tocar
    C         C/B       Am       Am/G
Solitarios, oscuros, buscando pareja
 FMaj7       G      C    FMaj7
Apurados un sábado más.

RIFF 1ª PARTE

        C         C/B       Am   Am/G
Hay un hombre aferrado al piano
     FMaj7      C          D7   G
La emoción empapada en alcohol
       C          C/B    Am       Am/G
Y una voz que le dice pareces cansado
   FMaj7       G          C   Fmaj7
Y aún no ha salido ni el sol.

RIFF DEL CORO

Am      Am/G         Am/F#
La, ra, ra, la, ra, raaa
Am    Am/G      Am/F#
La ra ra, la ra ra,
       G   G/F  G/E
Aah, aah, aah, aah.

RIFF 2ª PARTE

 C        C/B         Am      Am/G
Toca otra vez viejo perdedor
FMaj7     C           D7   G
Haces que me sienta bien,
         C        C/B      Am     Am/G
Es tan triste la noche que tu canción
FMaj7       G        C
Sabe a derrota y a miel.
TERMINA CON LA INTRODUCCIÓN

Que te parecio? Calificalo con estrellas!!

Rating: 8.0/10 (124 votos)

Este fichero es trabajo propio de su transcriptor y representa su interpretación personal de la canción. El material contenido en esta página es para exclusivo uso privado, por lo que se prohibe su reproducción o retransmisión, así como su uso para fines comerciales.


Comentario de deicko
BUENO ESO ES TODO ESPERO LES GUSTE ATTE:DEICKO
Deja tus comentarios:
Letras de canciones | Musica Independiente