Acordes y tablaturas para guitarra

Acordes y Tablaturas
Usuario: Password:

Buscar:
Acordes y Tablaturas >> Letra E >> Acordes de Espinoza Paz >> El Proximo Viernes
Tablatura de El Proximo Viernes, Espinoza Paz

El Proximo Viernes

Espinoza Paz






INTRO
          C                                     F
E |---------------------------------------------------|
B |-------1h3--3-1---1h3-1---1h3-1-----1-3-3/5--------|
G |-0-0-5----------0-------0---------0----------1h2---|
D |---------------------------------------------------|
A |---------------------------------------------------|
E |---------------------------------------------------|

                             Dm                F           G
E |-----------------------------------------------------------|
B |------1h3-1---1h3-1---6-5-3-3-----6-5-3-3----1--1-3s5----3-|
G |----2-------2-------2---------2-2-----------2--2-----------|
D |-----------------------------------------------------------|
A |-----------------------------------------------------------|
E |-----------------------------------------------------------|



(Esto es hablado mientras tocas el intro)

Hola bebe, Lamento mucho lo sucedido,
Pero te amo, Mucho te amo,
Bebe no andes con nadie porfa.


      C                 G
Hola Bebe, ¿Cómo has estado?
             F
Tal vez no sepas, quien habla
      Dm                G
O tal vez lo hayas olvidado.

  F                  C
Bebe, yo no soy tan malo
  F                 C
Bebe, sabes que te amo
   Dm
Salgamos el viernes
     F          G
Y hablemos de frente.

            C
Igual y le robo un beso a tu boca
   C7         F
Y dejas de creer que soy poca cosa
              Dm                    F
Igual y te explico, igual y no entiendes
          G
Que te necesito.

              C
Igual y te abrazo, con mucha ternura
       C7       F
Y hago desaparecer, toditas tus dudas

              Dm
Igual y he fallado, pero dime
    F                  G
¿Quién no se ha equivocado.

             C
Igual y de plano, ya no quieres verme
      C7       F
Pero déjame besar de nuevo tu frente
            Dm                F   G
Igual y te pido volverte a miraaaaar
                 C
El próximo viernes.

          C                                     F
E |---------------------------------------------------|
B |-------1h3--3-1---1h3-1---1h3-1-----1-3-3/5--------|
G |-0-0-5----------0-------0---------0----------1h2---|
D |---------------------------------------------------|
A |---------------------------------------------------|
E |---------------------------------------------------|

                             Dm                 F           G
E |-----------------------------------------------------------|
B |------1h3-1---1h3-1---6-5-3-3-----6-5-3-3----1--1-3s5----3-|
G |----2-------2-------2---------2-2-----------2--2-----------|
D |-----------------------------------------------------------|
A |-----------------------------------------------------------|
E |-----------------------------------------------------------|

Igual y le robo un beso a tu boca
   C7         F
Y dejas de creer que soy poca cosa
              Dm                    F
Igual y te explico, igual y no entiendes
          G
Que te necesito.

              C
Igual y te abrazo, con mucha ternura
       C7       F
Y hago desaparecer, toditas tus dudas

              Dm
Igual y he fallado, pero dime
    F                  G
¿Quién no se ha equivocado.

             C
Igual y de plano, ya no quieres verme
      C7       F
Pero déjame besar de nuevo tu frente
            Dm                F   G
Igual y te pido volverte a miraaaaar
                 C
El próximo viernes.

          C                                     F
E |---------------------------------------------------|
B |-------1h3--3-1---1h3-1---1h3-1-----1-3-3/5--------|
G |-0-0-5----------0-------0---------0----------1h2---|
D |---------------------------------------------------|
A |---------------------------------------------------|
E |---------------------------------------------------|

                             Dm                 F           G
E |-----------------------------------------------------------|
B |------1h3-1---1h3-1---6-5-3-3-----6-5-3-3----1--1-3s5----3-|
G |----2-------2-------2---------2-2-----------2--2-----------|
D |-----------------------------------------------------------|
A |-----------------------------------------------------------|
E |-----------------------------------------------------------|

Que te parecio? Calificalo con estrellas!!

Rating: 7.7/10 (358 votos)

Este fichero es trabajo propio de su transcriptor y representa su interpretación personal de la canción. El material contenido en esta página es para exclusivo uso privado, por lo que se prohibe su reproducción o retransmisión, así como su uso para fines comerciales.


Deja tus comentarios:
Letras de canciones | Musica Independiente