Acordes y tablaturas para guitarra

Acordes y Tablaturas
Usuario: Password:

Buscar:
Acordes y Tablaturas >> Letra P >> Acordes de Paco De Lucia >> La Malagueña
Tablatura de La Malagueña, Paco De Lucia

La Malagueña

Paco De Lucia






6°||------------------------------------------------|
  5°||------------------------------------------------|
  4°||--------------------------------------------3-2-|
  3°||---------------------2-1-2--------------2-1-----|
  2°||-----------0-3-1-0-1-------0-1-0-3-1-0----------|
  1°||-0-1-3-1-0--------------------------------------|

  |-0-4---0-4-----------3-1---0-4---0-4-----------3-1-|
  |-----2-----2-0-3-2-0-----------2-----2-0-3-2-0-----|
  |---------------------------------------------------|
  |---------------------------------------------------|
  |---------------------------------------------------|
  |---------------------------------------------------|

                Mi           Lam                         Mi
  6°||---------|-0-|--------|-0-|------------------------|-0-|
  5°||---------|-2-|--------|-0-|------------------------|-2-|
  4°||---------|-2-|--------|-2-|-----------------------3|-2-|
  3°||---------|-1-|--------|-2-|-2-1-2--------------2-1-|-1-|
  2°||---------|-0-|0-3-1-0-|-1-|-----0-1-0-3-1-0--------|-0-|
  1°||-0-1-3-1-|-0-|--------|-0-|------------------------|-0-|

  |-0-4---0-4-----------3-1---0-4---0-4-----------3-1--|
  |-----2-----2-0-3-2-0-----------2-----2-0-3-2-0------|
  |----------------------------------------------------|
  |----------------------------------------------------|
  |----------------------------------------------------|
  |--0-0-0-0-0-0-0-0-0-0-0-0---0-0-0-0-0-0-0-0-0-0-0-0-|

Que te parecio? Calificalo con estrellas!!

Rating: 5.6/10 (102 votos)

Este fichero es trabajo propio de su transcriptor y representa su interpretación personal de la canción. El material contenido en esta página es para exclusivo uso privado, por lo que se prohibe su reproducción o retransmisión, así como su uso para fines comerciales.


Comentario de mevtwo
ojala les salga suerte
Deja tus comentarios:
Letras de canciones | Musica Independiente