Acordes y tablaturas para guitarra

Acordes y Tablaturas
Usuario: Password:

Buscar:
Acordes y Tablaturas >> Letra M >> Acordes de Mana >> Te Llore Un Rio
Acordes de Te Llore Un Rio, Mana

Te Llore Un Rio

Mana






a.asos.b.csosm.e.
INTRO 1:[LA DEL UNPLUGGED]

e---------4---------7--------4---------------4--------2-2-2--4--2---º
B----5-------5--------5--------5--------5------5------------------0-º
G--4---4--------4--------4-------4----4---4------4------------------º
D-------------------------------------------------------------------ºX 2
A-------------------------------------------------------------------º
E-------------------------------------------------------------------º


INTRO 2:[LA GRABACION]

         E         C#m              A              B
e--------4---------7--------4---------------4--------2-2-2--4--2---º
B----5-------5--------5--------5--------5------5------------------0-º
G--4-----------------------------4----4----------4------------------ºX 2
D-------------------------------------------------------------------º
A-------------------------------------------------------------------º
E-------------------------------------------------------------------º

YO EN ESTE CASO VOY A HACER LA GRABACION

LAS DOS INTROS TERMINAN CON ESTE FINAL
         E         C#m              A                 B
e--------4---------7--------4---------------4---------2--2/4---------º
B----5-------5--------5--------5--------5------5--------------5/7--5-º
G--4-----------------------------4----4----------4-------------------º
D--------------------------------------------------------------------º
A--------------------------------------------------------------------º
E--------------------------------------------------------------------º
[grabacion]
E                    B
Yo  aqui llorandote un río

                C#m
mandandome al olvido

                  B
!Que cosa mas injusta amor!

NOTA:AQUI NO SE QUE NSTRUMENTO MUSICAL ENTRA, ASI QUE LO VOY A HACER
CON GUITARRA.

e--12--11--9---11--9----11--7----º
B--12--12--10--12--10---12--9----º
G--------------------------------º
D--------------------------------º
A--------------------------------º
E--------------------------------º

 E                    B
Fuiste matando mis pasiones

e-------------------------------------
B---/10-10-10--9--7--9-7--------------
G---/11-11-11--9--8--9-8--------------
D-------------------------------------
A-------------------------------------
E-------------------------------------
           C#m
tachando mis canciones

e-----0-------
B-------------
G--/4---------

               A 
me tenias pisoteado
e-------º
B--5--7-º
G--6--8-º
                B
¡Estaba deshauciado!

                C#m
no es justo ¡no bebe!

   B
oh oh eh oh
           B                B-A#-A
e--4--5--5/7--5--4----------------------
B-------------------7-5-4---------------
G---------------------------4-3-2-------
D---------------------------4-3-2-------

  A                      B
Pero este mundo ya giró

e--11/12--11----
B--12/14--12----

                C#m            B
Y ahora te toco perder[oh oh eh oh]

NOTA:de nuevo el instrumento musical raro.

e--11--14--17--19--
B------------------

NOTA:mientras se toca el coro, se toca la intro
 E      C#m                A 
¡bebe! te llore todo un rio [bebe,bebe]

B
bebe, te llore a reventar [bebe,bebe]

E               C#m           A 
oh no no nooooo, no tienes corazon[bebe]

B
no te vuelvo a amar

E                 C#m
te llore todo un rio

A                  B
ahora llorame un mar.

            B
e-------------0-2-3-4-0----------
B------1-2-4---------------------
G-1-2----------------------------

ESTROFA II.-
 E                       B
Ya no me busques ya es muy tarde

e-9---11-----
B-10--12-----
G------------

             C#m
Ya tengo otro amor

          B
una chula sirena

e--9---11--12--11--9---7-----º
B--10--12--14--12--10--9-----º
G----------------------------º

                 E
Que nada en mi piel

E                        B
Yo te perdono no hay rencores
e-11--9-/11---º
B-12--10/12---º
G-------------º
              C#m
tan solo los dolores

                A 
mi alma esta arañada

               B
llore en suelo mojado

                 C#m
¡no es justo! no bebe

e-9---11--11---12---12---
B-10--12--12---14---14---
G------------------------

[oh oh eh oh]
      B          B-A#-A
º------------º º-7-6-5----º
º------------º º-7-6-5----º
º------------º º----------º

A                     B
Pero este mundo ya giro

e-/12--11---------º
B-/14--12---------º
G-----------------º

                 C#m           B
Y ahora te toco perder[oh oh eh oh]


e-/9-9-9--7-7--5-5-º
B------------------º


SE TOCA LA INTRO

 E      C#m                A 
¡bebe! te llore todo un rio [bebe,bebe]

B
bebe, te llore a reventar [bebe,bebe]

E               C#m           A 
oh no no nooooo, no tienes corazon[bebe]

B
no te vuelvo a amar

E                 C#m
te llore todo un rio

A                  B
ahora llorame un mar.

e-----------------------------------
B-----------------------------------
G---------1-2--4--6-----------------
D--1-2-4----------------------------


e-/12--12-12--11--11-11--9---9---7-7----7--7--7---12-11---º
B-/14--14-14--12--12-12--10--10--9-9----9--9--9---14-12---º
G---------------------------------------------------------º


e-----------------------------------------------------9--12-11--------
B-------2-4-5--12-10-10/9--5-5-5/7-7/9--9-9-9/10---10----------12-----
G--1-2------------------------------------------------------------11--


NOTA:AQUI LES RECOMIENDO QUE SOLO TOQUEN LOS ACORDES PERO CON UNA
RASGUEADITA FINA,PARA QUE SE OIGA LOCASO Y TERMINAS LA CANCION
CON E  CON UNA PASADA, YA SI USTEDES QUIEREN LO HACEN TOCANDO  EL
INTRO ESTA PARTE.

   E                  C#m
Verdad que un rio te llore ,

 A                      B
verdad que no te vuelvo a amar

               E     C#m           A         B
oh no no no no no, no te vuelvo a amar[uuuuuuuuuuuuu]

 E                     C#m
Verdad que un rio te llore ,

  A                     B
verdad que no te vuelvo a amar

     E             C#m           A           B
oh no no no no no,pierdete en tu mar[uuuuuuuuuuuuuu]

[ESTA PARTE ES MAS RAPIDA]
    E             C#m
Verdad que un rio te llore ,

   A               B
verdad que no te vuelvo a amar

 E         C#m      A      B         E.
llorame,llorame,llorame[uuuuuu][fade out]

Que te parecio? Calificalo con estrellas!!

Rating: 6.2/10 (95 votos)

Este fichero es trabajo propio de su transcriptor y representa su interpretación personal de la canción. El material contenido en esta página es para exclusivo uso privado, por lo que se prohibe su reproducción o retransmisión, así como su uso para fines comerciales.


Deja tus comentarios:

Letras de Mana
Letras de canciones | Musica Independiente