Acordes y tablaturas para guitarra

Acordes y Tablaturas
Usuario: Password:

Buscar:
Acordes y Tablaturas >> Letra L >> Acordes de Los Prisioneros >> Quieren Dinero
Tablatura de Quieren Dinero, Los Prisioneros

Quieren Dinero

Los Prisioneros






intro:

    e--------------------------------------------------------
    B--------------------------------------------------------
    G--------------------------------------------------------
    D----------2-0------------------------1-0----------------
    A--3333333-----3-1111111111-0----------------------------
    E-----------------------------1111111-----1-3333333333---


    e--------------------------------------------------------
    B--------------------------------------------------------
    G--------------------------------------------------------
    D----------2-0---1--------------------1-0----------------
    A--3333333-----3-1111111111-0----------------------------
    E-----------------------------1111111-----1-3333333333---

aqui entran los otros intrumentos

    e--------------------------------------------------------
    B--------------------------------------------------------
    G--------------------------------------------------------
    D----------2-0------------------------1-0----------------
    A--3333333-----3-1111111111-0----------------------------
    E-----------------------------1111111-----1-3333333333---


    e--------------------------------------------------------
    B--------------------------------------------------------
    G--------------------------------------------------------
    D----------2-0---1--------------------1-0----------------
    A--3333333-----3-1111111111-0----------------------------
    E-----------------------------1111111-----1-3333333333---

     en los versos:
       do    fa  fa faº    do     faº
    e--0-----1---1-1------0-----1-1-----
    B--1-----1---1-1------1-----1-1-----
    G--0-----2---3-2------0-----2-2-----
    D--2-----3---3-3------2-----3-3-----
    A--3-----3---3-3------3-----3-3-----
    E--3-----1---1-1------3-----1-1-----

se puede hacer con 5tas también si quieren
º esos fa se repiten mas veces pero no es necesaria tanta rayita

pre coro
       RE#   FA     SOL
    e---------------------------
    B---------------------------
    G---8----10-----------------
    D---8----10-----5-----------
    A---6----8------5-----------
    E---------------3-----------

    e---------------------------
    B---------------------------
    G---8----10-----------------
    D---8----10-----5-5-5-------
    A---6----8------5-5-5-------
    E---------------3-3-3-------





    CORO:quieren dinero

escuchen bien por que casi ni se nota lo que hace la guitarra,
 pero esto es
    e----------------------------------------
    B----------------------------------------
    G----------------------------------------
    D---3-5555-3-5555--1-0----- -------------
    A-----------------3----3-----------------
    E----------------------------------------

    despues del segundo coro:

    e------------------------
    B------------------------
    G------------------------x8
    D--11111-0-0-------------
    A------------3-----------
    E------------------------

    el final:

    e------3-------3-------3---------------------
    B--1-3---3-1-3---3-1-3---3-------------------
    G--------------------------------------------
    D--------------------------------------------
    A--------------------------------------------
    E--------------------------------------------

Que te parecio? Calificalo con estrellas!!

Rating: 7.4/10 (42 votos)

Este fichero es trabajo propio de su transcriptor y representa su interpretación personal de la canción. El material contenido en esta página es para exclusivo uso privado, por lo que se prohibe su reproducción o retransmisión, así como su uso para fines comerciales.


Comentario de ccffy
:D
Deja tus comentarios:

Letras de Los Prisioneros
Letras de canciones | Musica Independiente