Enviado por: luchit
Agrandar Letra
Reducir Letra
Imprimir



Axel Fernando, Amo

Axel Fernando - Amo

| version facil |

INTRO:

E--5-5-5-5---7-8---5-5---10-8-----------
B---------------------------------------
G---------------------------------------
D---------------------------------------
A---------------------------------------
E---------------------------------------

E--3-3-3-3---5-6---5-5---8-6------------
B---------------------------------------
G---------------------------------------
D---------------------------------------
A---------------------------------------
E---------------------------------------

E--1-1-1-1---3-5---1-1---3-5------------
B---------------------------------------
G---------------------------------------
D---------------------------------------
A---------------------------------------
E---------------------------------------

E--7-7-7-7---8-10---7-7---8-10----------
B---------------------------------------
G---------------------------------------
D---------------------------------------
A---------------------------------------
E---------------------------------------

Y ahi termina la INTRO y empieza la cancion.

Sepan disculpar si no es asi, esta version la saque de oido.
Aviso: Este fichero es trabajo propio de su transcriptor y representa su interpretación personal de la canción. El material contenido en esta página es para exclusivo uso privado, por lo que se prohibe su reproducción o retransmisión, así como su uso para fines comerciales.
comentario del colaborador: Gracias Totales By Luchit ( LC )

Califica esta canción


Comentarios en Facebook