Enviado por: Xha
Agrandar Letra
Reducir Letra
Imprimir


Otras Versiones de House Of The Rising Sun:









The Animals, House Of The Rising Sun

e|-----0------------------ e|-----0-----------------
b|----0-0----------------- b|----0-0----------------
g|---0---0---------------- g|---0---0---------------
d|------------------------ d|-----------------------
a|-0---------------------- a|-3---------------------
E|------------------------ E|-----------------------


e|-----0------------------ e|-----0-----------------
b|----0-0----------------- b|----0-0----------------
g|---0---0---------------- g|---0---0---------------
d|-0---------------------- d|-3---------------------
a|------------------------ a|-----------------------
E|------------------------ E|-----------------------


e|-----0------------------ e|-----0-----------------
b|----0-0----------------- b|----0-0----------------
g|---0---0---------------- g|---0---0---------------
d|------------------------ d|-----------------------
a|-0---------------------- a|-----------------------
E|------------------------ E|-0---------------------

e|-----0------------------
b|----0-0-----------------
g|---0---0----------------
d|-0----------------------
a|------------------------
E|------------------------

asi es toda la cancion parece hay ta xD
Aviso: Este fichero es trabajo propio de su transcriptor y representa su interpretación personal de la canción. El material contenido en esta página es para exclusivo uso privado, por lo que se prohibe su reproducción o retransmisión, así como su uso para fines comerciales.

Califica esta canción


Comentarios en Facebook


Más canciones de The Animals: